» » »

Rockstar, Parting Time Tabs (ver.4)

Artists:  A B C D E F G H I J K L M N O P Q R S T U V W X Y Z # 

Parting Time Tabs (ver.4)

Rockstar Tabs
Rating:
0/5 (0 votes)
Hard to play? Try these video lessons and learn fast.
                Tuning: Standard
Time: 8:30

This tab is very much precise….I could say 98 percent!!hehehe,Sure na sure to!!!!Sana
ninyo!!!
support my other 3 tabs,Stars adlib,Isabel and Susundan by Callalily!!!


Intro: A-E/G#-F#m-E-D-A/C#-Bm-Esus4-E

Verse 1:
    A              E/G#         F#m
I remember the days when you're here with me
      D             A/C#                  Bm    Esus4-E
Those laughters and tears we'd shared for years hmmm..
A                E/G#       F#m
Memories that we had for so long it's me and you
D               A/C#      Bm           B   F#
Now you're gone away, you left me all alone
B     F#/Bb G#m          F#        E                  B
  Do un-----do what you want but please don't leave me
     C#m      F#sus4-F#
will break my heart
    B           F#/Bb   G#m            F#
Hey what should I do be by missing you
E                 B               C#m           F#sus4-F#
Please don't disappear these are the words wishing me
D                A/C#             Bm       A   Esus4-E
  Time and time again I wish that you were here

Chorus:
                A        E/G#            F#m       D
I don't want to lose you girl I need you back to me
E               A        E/G# F#m          D
I don't want to lose you baby Can't you see
E    A          E/G#         F#m       D E
Oh I need you, you've been a part of me


Post Chorus:
D   A/c#                Bm      A    (B Slide to C#)
  I wish someday you'll be back home
D      A/C#          Bm       A/c#   (B Slide to C#) D
  Cause I really miss you darling
D      A/C#          Bm       A     Esus4-E
Please come home


Interlude: A--E/G#--F#m--D-E (x3)


Guitar Solo: while doing interlude chords
e|-9b-9b--9-7-------------------------------9-10-10p9---------|
B|------------10-7-10-7-7----------9-10-12--------------------|
G|---------------------9-9--7-9-11----------------------------|
D|-------------------------------------------------------11---|
A|------------------------------------------------------------|
E|------------------------------------------------------------|
then
e|----------------14b-12-----------------------------------------|
B|-12-12-10------------------------------------------------------|
G|-----------------------14-------11(slide until 5th fret)-------|
D|----------9----------------------x-----------------------------|
A|---------------------------------9-----------------------------|
E|---------------------------------------------------------------|
then
e|------------------------------12-----12--------12s14-14s17-14--|
B|-7-5---7s9-7----9s10-9-10—12b----12b----12b-10-----------------|
G|-----7-------9-------------------------------------------------|
D|---------------------------------------------------------------|
A|---------------------------------------------------------------|
E|---------------------------------------------------------------|

e|-14-----14-16—17s19-17r-|
B|---15-------------------|
G|-----14-----------------|
D|------------------------|
A|------------------------|
E|------------------------|

(Repeat Post Chorus)

Outro: A--E/G#--F#m--D--E--A(Let it ring)


Haaaaaaaay natapos din!!!!!kakapagod yun ah!!!!!!!! Para nga pala to sa isang tao na
sa akin.......Si GENNELYN MANZANERO!!hehehe, I dedicate this song to you!!! Hope you 
it!!!!!!!!!
Sa banda kong The orbitz!!!!! Thanks sa support!!!!! Sa mga graduating
students!!!!!! Congratulations!!!!!!!
Cge!!! Sa susunod na tab ulit!!!!!!!!!!!
            

comments powered by Disqus
↑ Back to top | Rockstar Tabs for Parting Time. Lyrics for acoustic guitar and electric guitar. Tablatures and chords are parodies/interpretations of the original songs. You may use it for private study, scholarship, research or language learning purposes only