» » »

Rocket Summer, What We Hate, We Make Tabs (ver.1)

Artists:  A B C D E F G H I J K L M N O P Q R S T U V W X Y Z # 

What We Hate, We Make Tabs (ver.1)

Rocket Summer Tabs
 Rating:
4/5 (4 votes)
What We Hate, We Make lessons Tabs too difficult? Try these video lessons and learn fast
1
                





intro

e|-----------------------------||-------------------------------------|
B|-----------------------------||-------------------------------------|
G|--6---6---9---9---7---7---9--||--6---6---9---9---7---7---9----7-9---|
D|----7---7---7---7---7---7----||----7---7---7---7---7---7---------7--|
A|-----------------------------||-------------------------------------|
E|-----------------------------||-------------------------------------|

e|-----------------------------|
B|-----------------------------|
G|----------6-6-6-6------------|
D|--7-7-7-7-7-7-7-7------------|
A|-----------------------------|
E|-----------------------------|




e|-----------------------------|
B|-----------------------------|
G|--6--6--6--9---7--7--7--7----|
D|--7--7--7--7---7--7--7--7----|
A|-----------------------------|
E|-----------------------------|
don't try to hide

e|-----------------------------|
B|-----------------------------|
G|--6--6--6--6---7--7--7--7----|
D|--7--7--7--7---7--7--7--7----|
A|-----------------------------|
E|-----------------------------|
mistakes i made this time

e|-----------------------------|
B|-----------------------------|
G|--6--6--6--9---7--7--7--7----|
D|--7--7--7--7---7--7--7--7----|
A|-----------------------------|
E|-----------------------------|
but plz try in a scene

e|-------------------------------|
B|-------------------------------|
G|--7-9-----6--6--6--9--7-7-7-7--|
D|------7---7--7--7--7--7-7-7-7--|
A|-------------------------------|
E|-------------------------------|
cuz breaking my heart tonight 
so u can see inside

e|-----------------------------|
B|-----------------------------|
G|--6--6--6--9---7--7--7--7----|
D|--7--7--7--7---7--7--7--7----|
A|-----------------------------|
E|-----------------------------|
well ever you'll go 
well that's where i go

e|-------------------------------|
B|-------------------------------|
G|--7-9-----6--6--6--9--7-7-7-7--|
D|------7---7--7--7--7--7-7-7-7--|
A|-------------------------------|
E|-------------------------------|
i do so much ya'll i show but you won't know

e|-----------------------------|
B|-----------------------------|
G|--6--6--9--9--7--7--6--6-----|
D|--7--7--7--7--7--7--7--7-----|
A|-----------------------------|
E|-----------------------------|
so heres the song it show
that the things i blown
but i sorry so
that's the only way that i know

e|------------------------------------|
B|------------------------------------|
G|--6---6---7---7---6---6---6---6-----|
D|----7---7---7---7---7---7---7-------|
A|------------------------------------|
E|------------------------------------|

					and all i've learned is

e|------------------------------------|
B|------------------------------------|
G|------------------------------------|
D|----------7-------------------------|
A|----9-------------------------------|
E|---------------5--------------------|
	what we hate, we make

e|------------------------------------|
B|------------------------------------|
G|------------------------------------|
D|----------7-------------------------|
A|----9-------------------------------|
E|---------------5--------------------|
	what we hate, we make

e|------------------------------------|
B|----------9-------------------------|
G|----11----9-------------------------|
D|----11----7-----7-------------------|
A|----9-----------7-------------------|
E|----------------5-------------------|
	theres no time for hated

e|------------------------------------|
B|------------------------------------|
G|------------------------------------|
D|----------7-------------------------|
A|----9-------------------------------|
E|---------------5--------------------|
	what we hate, we make

something about to change
cuz i can feel it my heart today
and you know it's not the first time
but better won't be the same
cuz i know not no time blew
so heres the song to see yo well go
that's the only thing that i know

bridge
e|---------------------------------------------------------|
B|---------------------------------------------------------|
G|-----6--6--6--6---7--7--7--7---9-9-9-9---7-7-7-7---------|
D|-----7--7--7--7---7--7--7--7---7-7-7-7---7-7-7-7---------| 2x
A|---------------------------------------------------------|
E|---------------------------------------------------------|
.......start with the verse in the bridge by the chorus so we all can sing 
with everything we got
between you and me............





e|--------------------------------------|
B|--------------------------------------|
G|--------------------------------------|
D|----6-6--7-7--6-6--9-9-9-9---6---6----|
A|----7-7--7-7--7-7--7-7-7-7---7-7------|
E|--------------------------------------|
	what we hate, we make

e|--------------------------------------|
B|--------------------------------------|
G|--------------------------------------|
D|----6-6--7-7--6-6--9-9-9-9---6---6----|
A|----7-7--7-7--7-7--7-7-7-7---7-7------|
E|--------------------------------------|
	what we hate, we make

e|--------------------------------------|
B|--------------------------------------|
G|--------------------------------------|
D|----6-6--7-7--6-6--9-9-9-9---6---6----|
A|----7-7--7-7--7-7--7-7-7-7---7-7------|
E|--------------------------------------|
theres no time for hate him
e|--------------------------------------|
B|--------------------------------------|
G|--------------------------------------|
D|----6-6--7-7--6-6--9-9-9-9---6---6----|
A|----7-7--7-7--7-7--7-7-7-7---7-7------|
E|--------------------------------------|
what we hate, we make
            
Submit corrections

comments powered by Disqus
↑ Back to top | Rocket Summer Tabs for What We Hate, We Make. Lyrics for acoustic guitar and electric guitar. 1 Tablatures and chords are parodies/interpretations of the original songs. You may use it for private study, scholarship, research or language learning purposes only