» » »

That's So You Tabs (ver.1)

Artists:  A B C D E F G H I J K L M N O P Q R S T U V W X Y Z # 

That's So You Tabs (ver.1)

Rocket Summer
Rating:
0/5 (0 votes)

Tabs too difficult? Try these video lessons and learn fast.
                capo 1

e|-------------------------------------------------------------------------|
B|-----1--------1-------1---3-------1--------1-------1--------3------------|
G|-----0--------0-------2---0-----0--------0-------0--------0--------------|
D|--------2-------0-----2---0----------------------------------------------|
A|---3-------2-------0------x----------------------------------------------|
E|--------------------------3---1-------0-------1---------3----------------|

e|-------------------------------------------------------------------------|
B|-----1--------1-------1---3-------1--------1-------3---------------------|
G|-----0--------0-------2---0-----0--------0-------0-----------------------|
D|--------2-------0-----2---0----------------------------------------------|
A|---3-------2-------0------x----------------------------------------------|
E|--------------------------3---1-------0-------3---------4----------------|

e|-------------------------------------------------------------------------|
B|--1---3---1---1--1--3--1--1--1---3--1--1---3-----------------------------|
G|--2---0---0---0--2--0--0--0--2---0--0--0---0-----------------------------|
D|--2---0---2---0--2--0--2--0--2---0--2--0---0-----------------------------|
A|------x---3---0-----x--3--0------x--3--0---0-----------------------------|
E|------3-------1-----3-----1------3-----1---3-----------------------------|

e|-------------------------------------------------------------------------|
B|--1---0--1---1---1---3---1-0-1--1--1--3----------------------------------|
G|--0---0--0---2---2---0---0-0-0--2--2--0----------------------------------|
D|--2---2--2---2---3---0---2-2-2--2--3--0----------------------------------|
A|--3---3--3-----------x---3-3-3--------x----------------------------------|
E|---------------------3----------------3----------------------------------|

e|-------------------------------------------------------------------------|
B|-----1--------1-------1---3-------1--------3---1-------------------------|
G|-----0--------0-------2---0-----0--------0-----0-------------------------|
D|--------2-------0-----2---0--------------------2-------------------------|
A|---3-------2-------0------x--------------------3-------------------------|
E|--------------------------3---1-------3----------------------------------|

e|--3---2--3--3--3---2--3--3-----------------------------------------------|
B|--1---1--1--0--1---1--1--0-----------------------------------------------|
G|--2---2--2--0--2---2--2--0-----------------------------------------------|
D|--2------3--0--2------3--0-----------------------------------------------|
A|------------x------------x-----------------------------------------------|
E|------------3------------3-----------------------------------------------|

e|-------------------------------------------------------------------------|
B|--1---0--1---1---1---3---1-0-1--1--1--3----------------------------------|
G|--0---0--0---2---2---0---0-0-0--2--2--0----------------------------------|
D|--2---2--2---2---3---0---2-2-2--2--3--0----------------------------------|
A|--3---3--3-----------x---3-3-3--------x----------------------------------|
E|---------------------3----------------3----------------------------------|

e|-------------------------------------------------------------------------|
B|-----1--------1-------1---3-------1--------3---1-------------------------|
G|-----0--------0-------2---0-----0--------0-----0-------------------------|
D|--------2-------0-----2---0--------------------2-------------------------|
A|---3-------2-------0------x--------------------3-------------------------|
E|--------------------------3---1-------3----------------------------------|
            
Tabs too difficult? Try these video lessons and learn fast.




comments powered by Disqus
↑ Back to top | Tablatures and chords are parodies/interpretations of the original songs. You may use it for private study, scholarship, research or language learning purposes only