» » »

Rocket Summer, Tell Me Something Good Tabs (ver.1)

Artists:  A B C D E F G H I J K L M N O P Q R S T U V W X Y Z # 

Tell Me Something Good Tabs (ver.1)

Rocket Summer Tabs
Rating:
4/5 (4 votes)
Tell Me Something Good lessons Tabs too difficult? Try these video lessons and learn fast
                This is a great song by a great guy.  Just listen to the song to get the strumming 
right but this is how it's played, and I tabbed out part of the solo in the middle of the song.

e------0--0---2--2---2h3p2---2-3--3---2--2---0-|   This part is played through
B--3---3--3---3--3---3---3---3-3--3---3--3---3-|   pretty much the entire song
G--2---2--2---2--2---2---2---2-2--2---2--2---0-|   with the exception of "tell
D--0---0--0---0--0---0---0---0-0--0---0--0---0-|   me something good."
A--0-----------------------------------------2-|
E--------------------------------------------3-|

"So tell me something good"
e--0---0--0---2h3p2---0-----|   That's played during each chorus.
B--3---2--2---3---3---3--3--|
G--0---2--2---2---2---2--2--|
D--0---2--2---0---0---0--0--|
A--2---0--0--------------0--|
E--3------------------------|

This is the solo in the middle of the song.
e---------------------------------------------------------------------------|
B--------7~---------------------------------7~------------------------------|
G--7--9------------7------------------7--9------------7h9-11s9-7------------|
D--------------7h9-----9p7-9-7-5------------------7h9-------------9~--11-11-|
A---------------------------------------------------------------------------|
E---------------------------------------------------------------------------|

e--------------------------------------------------------------------------|
B----------12-14-----14-15------------15-----------------------------------|
G-------12--------12---------------12----12-----11h12-12-14-12p11s/16~-----|
D-11-12--------------------12---12----------12-----------------------------|
A--------------------------------------------------------------------------|
E--------------------------------------------------------------------------|

e----2--0---0--|
B-----------x--|
G--1--------1--|
D--------------| "I wanna be, I wanna be like that mountain"
A--------------|
E--------------|
            
Submit corrections

comments powered by Disqus
↑ Back to top | Rocket Summer Tabs for Tell Me Something Good. Lyrics for acoustic guitar and electric guitar. Tablatures and chords are parodies/interpretations of the original songs. You may use it for private study, scholarship, research or language learning purposes only