» » »

Rocket Summer, So Much Love Tabs (ver.1)

Artists:  A B C D E F G H I J K L M N O P Q R S T U V W X Y Z # 

So Much Love Tabs (ver.1)

Rocket Summer Tabs
 Rating:
4/5 (7 votes)
So Much Love lessons Tabs too difficult? Try these video lessons and learn fast
1
                -------------------------------------------------------------------------------
SO MUCH LOVE – The Rocket Summer
-------------------------------------------------------------------------------

Tuning: Standard

   Intro/Verse (Hats need a beat...)
e|----0----0----0----0----0----0----0----0-----------------------------------|
B|----0----1----0----1----0----1----0----1-----------------------------------|
G|----0----0----0----0----0----0----0----0-----------------------------------|
D|----2----2----2----2----2----2----2----2-----------------------------------|
A|----2----0----2----0----2----0----2----0-----------------------------------|
E|----0---------0---------0---------0----------------------------------------|

   Interlude/Chorus 1 (Oh...Yeah...)
e|----0---2--3----0---0--0--0----|
B|----0---3--3----1---0--1--1----|
G|----0---2--0----0---0--2--0----|    x2
D|----2---4--0----2---2--2--2----|
A|----2---2--2----3---3--0--0----|
E|----0---2--3----3---3----------|

   Verse (Hearts need a mind...)
e|----3----0----3----0----3----0----0---2--3----0---0--0--0------------------|
B|----0----1----0----1----0----1----0---3--3----1---0--1--1------------------|
G|----0----0----0----0----0----0----0---2--0----0---0--2--0------------------|
D|----2----2----2----2----2----2----2---4--0----2---2--2--2------------------|
A|----2----0----2----0----2----0----2---2--2----3---3--0--0------------------|
E|----0---------0---------0---------0---2--3----3---3------------------------|

   Chorus 1 (Oh, I swear...)
e|----0---2--3----0---0--0--0----|
B|----0---3--3----1---0--1--1----|
G|----0---2--0----0---0--2--0----|    x3, then
D|----2---4--0----2---2--2--2----|
A|----2---2--2----3---3--0--0----|
E|----0---2--3----3---3----------|

e|----0---2--3---0---2-|
B|----0---3--3---1---3-|
G|----0---2--0---0---2-|
D|----2---4--0---2---4-|
A|----2---2--2---0---2-|
E|----0---2--3---------|

   Chorus 2 (You got so much love...)
e|-----0---3---0---------0---3---0--------|
B|-----1---3---1---------1---3---1--------|
G|-----0---0---0---------0---0---0--------|
D|-----2---0---2---------2---0---2--------|
A|-----3---2---0---------3---2---0--------|
E|-----3---3-------------3---3------------|


   Verse (Strike all the bells...)

   Chorus 1

   Chorus 2

   Verse (Sax solo)


   Bridge (Ahh’s)
e|---0----3----0----0--2-----|
B|---0----3----1----0--3-----|
G|---0----0----0----0--2-----|    x3, then
D|---2----0----2----2--0-----|
A|---3----2----3----2--------|
E|---3----3----3----0--------|

e|---0----3----0------2------|
B|---0----3----1------3------|
G|---0----0----2------2------|
D|---2----0----2------0------|
A|---3----2----0-------------|
E|---3----3------------------|

   Chorus 2 x4, then

   Outro
e|--------0------2----3------|
B|--------0------3----3------|
G|--------0------2----0------|
D|--------2------4----0------|
A|--------2------2----2------|
E|--------0------2----3------|


I’ll tell y’all up front: this is NOT a true-to-life version of the song.  The real song 
more power chord-y stuff than this, but this version sounds good on a solo acoustic.  
to the recording for the rhythm.

Rock on.


| /  slide up
| \  slide down
| h  hammer-on
| p  pull-off
| ~  vibrato
| +  harmonic
| x  Mute note
===============================================================================
            
Submit corrections

comments powered by Disqus
↑ Back to top | Rocket Summer Tabs for So Much Love. Lyrics for acoustic guitar and electric guitar. 1 Tablatures and chords are parodies/interpretations of the original songs. You may use it for private study, scholarship, research or language learning purposes only