» » »

Rocket Summer, Show Me Everything You've Got Tabs (ver.1)

Artists:  A B C D E F G H I J K L M N O P Q R S T U V W X Y Z # 

Show Me Everything You've Got Tabs (ver.1)

Rocket Summer Tabs
 Rating:
4/5 (4 votes)
Show Me Everything You've Got lessons Tabs too difficult? Try these video lessons and learn fast
                I don't have all of it tabbed and it's not perfect but here it is

'Show Me Everything You Got' - The Rocket Summer


-5--8--5--5--8--5--8--5--5--8--5--8--5--5--8--5--8--5--5--8-|
-6--6--6--6--6--6--6--6--6--6--6--6--6--6--6--6--6--6--6--6-|
------------------------------------------------------------|
------------------------------------------------------------|
------------------------------------------------------------|
------------------------------------------------------------|

-5--6--5--5--8--5--6--5--5--8--5--6--5--5--8--5--8--5--5--8-|
-6--6--6--6--6--6--6--6--6--6--6--6--6--6--6--6--6--6--6--6-|
------------------------------------------------------------|
------------------------------------------------------------|
------------------------------------------------------------|
------------------------------------------------------------|

--6---8---6---6---8--                   --6-----5--------8--8--8--8--8--8-----|
--6---6---6---6---6--                --6-----6--------6--6--6--6--6--6--------|
---------------------(I'm not sure what---------------------------------------|
---------------------the next thing he ---------------------------------------|
-------------------- he does is I cant ---------------------------------------|
---------------------  really hear it)----------------------------------------|

---5---5--------8---8--------6---6---|
---6---6--------6---6--------6---6---|
---5---5--------5---5--------5---5---|
-------------------------------------|
-------------------------------------|
-------------------------------------|

---5--------6--------8--------5-------|
---6--------6--------6--------6-------|
---5--------5--------5--------5-------|
--------------------------------------|
--------------------------------------|
--------------------------------------|

---5---8---5------------5---5---8---5-|
---6---6---6------------6---6---6---6-|
---5---5---5------------5---5---5---5-|
--------------------------------------|
--------------------------------------|
--------------------------------------|

---6---8---6-----6--6---8---6---|
---6---6---6-----6--6---6---6---|
---5---5---5-----5--5---5---5---|
--------------------------------|
--------------------------------|
--------------------------------|

----8------------8--------------6------------5-----|
----6------------6--------------6------------6-----|
----5------------5--------------5------------5-----|
-----------------5--------------3------------3-----|
---------------------------------------------------|
---------------------------------------------------|
            
Submit corrections

comments powered by Disqus
↑ Back to top | Rocket Summer Tabs for Show Me Everything You've Got. Lyrics for acoustic guitar and electric guitar. Tablatures and chords are parodies/interpretations of the original songs. You may use it for private study, scholarship, research or language learning purposes only