» » »

Rocket Summer, Of Men And Angels Tabs (ver.1)

Artists:  A B C D E F G H I J K L M N O P Q R S T U V W X Y Z # 

Of Men And Angels Tabs (ver.1)

Rocket Summer Tabs
Rating:
0/5 (0 votes)
Of Men And Angels lessons Tabs too difficult? Try these video lessons and learn fast
                -------------------------------------------------------------------------------
                             Of Men And Angels - The Rocket Summer
-------------------------------------------------------------------------------
Super good song from Bryce. Enjoy :)

Intro
e|---------------------------------------------------------------------------|
B|---------------------------------------------------------------------------|
G|----------------7---------------2------------------------------------------|
D|------9---------7-(x8)--5-------2-(x8)-------------------------------------|
A|------9-(x8)----5-------5-(x8)--0------------------------------------------|
E|------7-----------------3--------------------------------------------------|

Verse/Pre-Chorus (The strumming is diffrent)
e|---------------------------------------------------------------------------|
B|---------------------------------------------------------------------------|
G|----------------7---------------2------------------------------------------|
D|------9---------7-(x4)--5-------2-(x4)-------------------------------------|
A|------9-(x4)----5-------5-(x4)--0------------------------------------------|
E|------7-----------------3--------------------------------------------------|

Chorus
e|---------------------------------------------------------------------------|
B|---------------------------------------------------------------------------|
G|---------------------7-7-7-7-----------------------------------------------|
D|---9-9-9-9--5-5-5-5--7-7-7-7--2-2-2-2--------------------------------------| (x3)
A|---9-9-9-9--5-5-5-5--5-5-5-5--2-2-2-2--------------------------------------|
E|---7-7-7-7--3-3-3-3-----------0-0-0-0--------------------------------------|

e|---------------------------------------------------------------------------|
B|---------------------------------------------------------------------------|
G|---------------------------------------------------------------------------|
D|---9-9-9-9--5-5-5-5--------------------------------------------------------|
A|---9-9-9-9--5-5-5-5--------------------------------------------------------|
E|---7-7-7-7--3-3-3-3--------------------------------------------------------|

Post-Chorus/Verse/Pre-Chorus
e|---------------------------------------------------------------------------|
B|---------------------------------------------------------------------------|
G|----------------7---------------2------------------------------------------|
D|------9---------7-(x4)--5-------2-(x4)-------------------------------------|
A|------9-(x4)----5-------5-(x4)--0------------------------------------------|
E|------7-----------------3--------------------------------------------------|

Chorus
e|---------------------------------------------------------------------------|
B|---------------------------------------------------------------------------|
G|---------------------7-7-7-7-----------------------------------------------|
D|---9-9-9-9--5-5-5-5--7-7-7-7--2-2-2-2--------------------------------------| (x3)
A|---9-9-9-9--5-5-5-5--5-5-5-5--2-2-2-2--------------------------------------|
E|---7-7-7-7--3-3-3-3-----------0-0-0-0--------------------------------------|

e|---------------------------------------------------------------------------|
B|---------------------------------------------------------------------------|
G|---------------------------------------------------------------------------|
D|---9-9-9-9--5-5-5-5--------------------------------------------------------|
A|---9-9-9-9--5-5-5-5--------------------------------------------------------|
E|---7-7-7-7--3-3-3-3--------------------------------------------------------|

Bridge
e|---------------------------------------------------------------------------|
B|---------------------------------------------------------------------------|
G|---------------------------------------------------------------------------|
D|---4------5------7------9--------------------------------------------------| (x3)
A|---4-(x4)-5-(x4)-7-(x4)-9-(x4)---------------------------------------------|
E|---2------3------5------7--------------------------------------------------|

e|---------------------------------------------------------------------------|
B|---------------------------------------------------------------------------|
G|---5-----------------------------------------------------------------------|
D|---5-(x8)------------------------------------------------------------------|
A|---3-----------------------------------------------------------------------|
E|---------------------------------------------------------------------------|

Chorus
e|---------------------------------------------------------------------------|
B|---------------------------------------------------------------------------|
G|---------------------7-7-7-7-----------------------------------------------|
D|---9-9-9-9--5-5-5-5--7-7-7-7--2-2-2-2--------------------------------------| (x5)
A|---9-9-9-9--5-5-5-5--5-5-5-5--2-2-2-2--------------------------------------|
E|---7-7-7-7--3-3-3-3-----------0-0-0-0--------------------------------------|

e|---------------------------------------------------------------------------|
B|---------------------------------------------------------------------------|
G|---------------------------------------------------------------------------|
D|---9-9-9-9--5-5-5-5--------------------------------------------------------|
A|---9-9-9-9--5-5-5-5--------------------------------------------------------|
E|---7-7-7-7--3-3-3-3--------------------------------------------------------|


************************************

| /   slide up
| \   slide down
| h   hammer-on
| p   pull-off
| ~   vibrato
| +   harmonic
| x   Mute note
| b   Bend
| pb  Pre-bend
| br  Bend release
| pbr Pre-bend release
| brb Bend release bend

************************************
            
Submit corrections

comments powered by Disqus
↑ Back to top | Rocket Summer Tabs for Of Men And Angels. Lyrics for acoustic guitar and electric guitar. Tablatures and chords are parodies/interpretations of the original songs. You may use it for private study, scholarship, research or language learning purposes only