» » »

Rocket Summer, Never Knew Bass tabs (ver.1)

Artists:  A B C D E F G H I J K L M N O P Q R S T U V W X Y Z # 

Never Knew Bass tabs (ver.1)

Rocket Summer Tabs
Rating:
0/5 (0 votes)
Never Knew lessons Tabs too difficult? Try these video lessons and learn fast
                ------------------------------------------------------------------------------------
			   NEVER KNEW - The Rocket Summer
------------------------------------------------------------------------------------


 |Verse             |Chorus
 |(1:13-1:19)       |(1:20-1:44) 
G|------------------|-----------------------------|--------------------------------|
D|------------------|-----------------------------|--------------------------------|
A|---4--6--6--66666-|--------4-4-44---------------|--------4-4-44------------------|
E|6-----------------|-2-2-22--------6-6-66-4-4-4-4|-2-2-22-------2-2-4-6-6666------|
                    |(Play x2)                    |(3rd time) 

                             |Verse           |Chorus 
                             |(1:57-2:02)     |(2:02-2:27)
G|---------------------------|----------------|------------------------------------|
D|---------------------------|----------------|------------------------------------|
A|--------4-4-44-------------|----------------|------------------------------------|
E|-2-2-22--------4-444--444--|----------------|------------------------------------|
 |(4th time)

 |Bridge
 |(2:28-2:52)
G|-----------------------------------|---------------------------------------------|
D|-----------------------------------|----------1---------------------------------6|
A|-1-1-1-11-3--------4-4-4-4-6-6-6-6-|-1-1-1-134----------6-66-666-8-88-888-444444-|
E|------------2-2-2-2----------------|------------2-2-2-2--------------------------|
 |(1st time)                         |(2nd time)

|Chorus (Play x3)
|(2:53-3:57)

====================================================================================
            

comments powered by Disqus
↑ Back to top | Rocket Summer Bass for Never Knew. Lyrics for acoustic guitar and electric guitar. Tablatures and chords are parodies/interpretations of the original songs. You may use it for private study, scholarship, research or language learning purposes only