>
 >
Movie Stars And Super Models

Movie Stars And Super Models Guitar Tabs

Rocket Summer - Movie Stars And Super Models chords, tabs, tablatures, lyrics

Guitar lessons | Add/correct | Request | Top 50 tabs Artists:  A B C D E F G H I J K L M N O P Q R S T U V W X Y Z 0-9

Movie Stars And Super Models Guitar Tabs – Rocket Summer

CD, Sheet music, Poster

Do you like Movie Stars And Super Models? Share with your friends now
Tabs
chords 
E 022100
C#m 046650
F#m 244522
A 002200 or 002220
B 024400

e|-------------------------------------------------------------------------|
B|-------------------------------------------------------------------------|
G|------9--8/-----1---2-------9--8/------1-2-------------------------------|
D|--9----------2----------9----------2-------------------------------------|
A|--7----------2----------7----------2-------------------------------------|
E|-------------------------------------------------------------------------|

 E
How come my life ain't like this movie?
C#m
I should try to look some more like that.
    F#m                   A
And maybe then I could be a movie star,
 C#m                        A                 E
And maybe then you'd always laugh at my jokes.
E
Cuz life would be just like this movie,
   C#m
and I would never feel alone. In fact,
          F#m                      A
all the problems that I have would go away,
       C#m                 A
and I would forget how to feel sad.

        A                       B
Cuz this silver screen that I'm looking at
    E                  A              A
is making me a little bored of my life cuz
         A         B
its not what I'm looking at,
        E           A          A
Cuz this has so much more of excitement,
 A             B                E          A
thrills, and adventurous things in every life.
     F#m                  B
And a sparkle is the reflection in my eye.

E    A       F#m   A
Ba ba ba ba, ba ba ba ba.
      E                  A
If only the shows were as real as the glows
          D         
then we'd never see the same,
         B
but I guess we'll never know.
  E      A     F#m     A
Ba ba ba ba, ba ba ba ba.
     E                  A
Well they showed it, and we bought it.
           F#m                B
So you see it's not just me, its sweet - It's in the movie.

E                            C#m
She wants a better body and some super model moves.
          F#m                      A                    
Cuz in her head she's always been the ugly one.
     C#m               A
Well hey, we think we're ugly too.
        E                      
And it's true that we will never know 
  C#m
all of the things that she could have known.
        F#m                                     A
Well I wonder when she thought it was that she would win?
    C#m          A
Cuz man she got so thin.

 A    B        C#m                    E           A  B  C#m          
Every now and then she would start to pretend like she was a star and in the 
E
movies they're in.
 A        B             C#m
But it's atrange cuz it seems
                E
there's never happy endings.
  A        B
Is it make believe?

e|-------------------------------------------------------------------------|
B|-------------------------------------------------------------------------|
G|------9--8/-----1---2-------9--8/------1-2------------------1------------|
D|--9----------2----------9----------2----------x2--4--6--4---2------------|
A|--7----------2----------7----------2--------------4--6--4---2------------|
E|--------------------------------------------------2--4--2---0------------|





Comments


Popular Rocket Summer tabs & chords
Break It Out Bass Tabs
Break It Out Chords
Do You Feel Chords
I Want Something To Live For Chords
Walls Chords
Light Intro Tabs
Skies So Blue Tabs
Cross My Heart Ukulele
The Fight Ukulele
Tv Family Ukulele


Song lyrics



↑ Back to top | Tablatures and chords are parodies/interpretations of the original songs. You may use it for private study, scholarship, research or language learning purposes only
© 2014 AZChords.com Contact us | Privacy policy | DMCA | Add/correct tabs | Request tabs | Top 50 tabs