» » »

Rocket Summer, Move To The Other Side Of The Block Tabs (ver.1)

Artists:  A B C D E F G H I J K L M N O P Q R S T U V W X Y Z # 

Move To The Other Side Of The Block Tabs (ver.1)

Rocket Summer Tabs
 Rating:
4/5 (4 votes)
Move To The Other Side Of The Block lessons Tabs too difficult? Try these video lessons and learn fast
                this is really a piano song but here it is on the acoustic guitar    easy  and 
avery is mazing  learn more of his songs!

 so we try...and try...all of our lives
e-------x--------x-----x----------x-----------------------------|
b-------x--------x-----x----------x-----------------------------|
g-------6----P---5--h--6----------5-----------------------------|
d-------6--------6-----6----------6-----------------------------|
a-------4--------x-----x----------x-----------------------------|
E-------x--------4-----6----------4-----------------------------|

  working with such pride, making cash just to survive...
e-x-----------------x-------x-----------------x-----------------|
b-x-----------------x-------x-----------------x-----------------|
g-3-----------------5-------3-----------------5-----------------|
d-4-----------------6-------4-----------------6-----------------|
a-x-----------------x-------x-----------------x-----------------|
E-2-----------------4-------2-----------------4-----------------|

   as we race..and grade..and judge always...
e-------x---------x-----------x-------x-------------------------|
b-------x---------x-----------x-------x-------------------------|
g-------6---P-----5------H----6-------5-------------------------|
d-------6---------6-----------6-------6-------------------------|
a-------4---------x-----------x-------x-------------------------|
E-------x---------4-----------6-------4-------------------------|

  other folks mistakes  make us good to feel this way
e--x----------x----------------x------------------x-------------|
b--x----------x----------------x------------------x-------------|
g--3----------5----------------3------------------5-------------|
d--4----------6----------------4------------------6-------------|
a--x----------x----------------x------------------x-------------|
E--2----------4----------------2------------------4-------------|

  and dont you know, it never stops, try to please the world
e--x-----------------x---------------x--------------------------|
b--x-----------------x---------------x--------------------------|
g--x-----------------x---------------x--------------------------|
d--4-----------------6---------------4--------------------------|
a--4-----------------6---------------4--------------------------|
E--2-----------------4---------------2--------------------------|

  and beat the ticking clocks but I, Im not letting it happen
e--------------x-------------------x---------x------------------|
b-stum---------x-------------------x---------x------------------|
g-rapidly------x-------------------x---------x------------------|
d--------------6-------------------4---------6------------------|
a--------------6-------------------4---------6------------------|
E--------------4-------------------2---------4------------------|

   this time..
e---------------------------------------------------------------|
b--stop strumming-----------------------------------------------|
g---------------------------------------------------------------|
d---------------------------------------------------------------|
a---------------------------------------------------------------|
E---------------------------------------------------------------|
         thats it....its just repeats after that....very easy   if u use your ear 
bit   -Scottie P-
            
Submit corrections

comments powered by Disqus
↑ Back to top | Rocket Summer Tabs for Move To The Other Side Of The Block. Lyrics for acoustic guitar and electric guitar. Tablatures and chords are parodies/interpretations of the original songs. You may use it for private study, scholarship, research or language learning purposes only