» » »

Rocket Summer, I'm Doing Everything (For You) Tabs (ver.1)

Artists:  A B C D E F G H I J K L M N O P Q R S T U V W X Y Z # 

I'm Doing Everything (For You) Tabs (ver.1)

Rocket Summer Tabs
Rating:
0/5 (0 votes)
Hard to play? Try these video lessons and learn fast.
                I'm Doing Everything (for you) Guitar Tab

Listen for the timing and how many times to play anything. i mostly made this off
the video of him playing this in some live show he did in a backyard. 
A video i got off the internet. Good luck.


h=hammer on
p=pull off
()=you can play the notes in parenthesis but it still sounds good without them

 
normal tuning

INTRO

E-||--x---x---x-x-x--||----x---x---x----x----x----------x----x----x----x--||
B-||--x---x---x-x-x--||----x---x---x----x----x----------x----x----x----x--||
G-||--x---x---x-x-x--||--9-x-9-x-9-x-99-x-99-x-13-13-13-x-11-x-88-x-99-x--||
D-||--x---x---x-x-x--||--6-x-7-x-9-x-66-x-77-x-14-14-14-x-14-x-99-x-99-x--||
A-||--x---x---x-x-x--||-(7)x(7)x(7)x(99)x(99)x(14-14-14)x(12)x(99)x(99)x--||
E-||--x---x---x-x-x--||----x---x---x----x----x----------x----x----x----x--|| X2

Verse

E-||----x---x---x----x----x----------x----x----x----x--||
B-||----x---x---x----x----x----------x----x----x----x--||
G-||----x---x---x----x----x-13-13-13-x-11-x-88-x-99-x--||
D-||--6-x-7-x-9-x-66-x-77-x-14-14-14-x-14-x-99-x-99-x--||
A-||--x-x-x-x-x-x-xx-x-xx-x(14-14-14)x(12)x(99)x(99)x--||
E-||--9-x-9-x-9-x-55-x-55-x----------x----x----x----x--||

Pre-chorus

                     Then this...
E-||--0-----------||  ||--0-00-0-0----||
B-||--0-----------||  ||--4h55p4\2p0--||
G-||--1---5---6---||  ||--------------||
D-||--2---5---6---||x3||--------------||
A-||--2---3---4---||  ||--------------||
E-||--0-----------||  ||--------------||

E-||-------0---------0------0---||
B-||-------0---------0------0---||
G-||--2----2-----2---2---4--x---||
D-||--2----1-----2---1---2--5---||
A-||-------2---------2---4--6---||
E-||----------------------------||

Chorus
E-||--0-0-0-x-0-0-x-0-0-0-x-0-0-x-0-0-0-x-0-0-x-0-0-0-x-0-0-x--||
B-||--0-0-0-x-0-0-x-0-0-0-x-0-0-x-0-0-0-x-0-0-x-0-0-0-x-0-0-x--||
G-||--8-8-9-x-9-8-x-8-8-9-x-9-8-x-8-8-9-x-9-8-x-8-8-9-x-9-8-x--||
D-||--9-9-9-x-9-9-x-9-9-9-x-9-9-x-9-9-9-x-9-9-x-9-9-9-x-9-9-x--||
A-||--7-7-7-x-7-7-x-7-7-7-x-7-7-x-7-7-7-x-7-7-x-7-7-7-x-7-7-x--||
E-||--0-0-0-x-0-0-x-0-0-0-x-0-0-x-0-0-0-x-0-0-x-0-0-0-x-0-0-x--||

                                         Then...
E-||--0-0-0--x-0--0-x-0-0----x-0--0-x--||----------||
B-||--9-9-10-x-10-9-x-9-9-10-x-10-9-x--||----------||
G-||--9-9-9--x-9--9-x-9-9-9--x-9--9-x--||----------||
D-||--9-9-9--x-9--9-x-9-9-9--x-9--9-x--||--5-4-4---||
A-||--0-0-0--x-0--0-x-0-0-0--x-0--0-x--||--3-5-6---||
E-||--0-0-0--x-0--0-x-0-0-0--x-0--0-x--||----------||

Repeat Verse

Repeat Pre-Chorus and chorus

Bridge
E-||-----------0----|  |---0-----0---0--||
B-||-----------0----|  |---0-----1---0--||
G-||--6----9---2----|  |---2-----2---4--||
D-||--6----9---2----|  |---1-----2---4--||
A-||--4----7---0----|  |---2-----0---2--||
E-||----------------|X3|---------0------||


Chorus

End of intro thing. Listen to the song to figure.
            

comments powered by Disqus
↑ Back to top | Rocket Summer Tabs for I'm Doing Everything (For You). Lyrics for acoustic guitar and electric guitar. Tablatures and chords are parodies/interpretations of the original songs. You may use it for private study, scholarship, research or language learning purposes only