» » »

Rocket Summer, Good News Tabs (ver.1)

Artists:  A B C D E F G H I J K L M N O P Q R S T U V W X Y Z # 

Good News Tabs (ver.1)

Rocket Summer Tabs
 Rating:
4/5 (5 votes)
Good News lessons Tabs too difficult? Try these video lessons and learn fast
                  Intro/Verse [3x]
e|-------------------------------------0---------|
B|---------------------------------3-------3-----|
G|-----------------------------2---------------0-|
D|-----4---0-----------5---0---------------------|
A|-2-----------4---0-----------------------------|
E|-----------------------------------------------|

e|----2-------3---------2---0-2-2--2--2--0--0--0-|
B|----2-------3-------3-3---3-3-3--3--3--3--3--3-|
G|----4-----2-------2---2---2-2-2--2--2--2--2--2-|
D|--4-----2-------4-----4---4-4-4--4--4--4--4--2-|
A|2----------------------------------------------|
E|-----------------------------------------------|


  Pre-Chorus [Strum Pattern Not Indicated]
e|----0--2--2-----0--2--2-----0-|
B|-3--3--2--3--3--3--2--3--3--3-|
G|-0--2--4--2--0--2--4--2--0--2-|
D|-0--2--4--0--0--2--4--0--0--2-|
A|-2--0--2--0--2--0--2--0--2--0-|
E|-3-----------3-----------3----|


  Chorus
e|-2---2---2---2---0---0---0---0---2---2---2---2-|
B|-----------------------------------------------|
G|-----------------------------------------------|
D|-4---4---4---4---2---2---2---2---4---4---4---4-|
A|-----------------------------------------------|
E|-----------------------------------------------|

e|-5---5---5---5---3---3---3---3-|
B|-5---5---5---5---4---4---4---4-|
G|-5---5---5---5---5---5---5---5-|
D|-5---5---5---5---5---5---5---5-|
A|-3---3---3---3---3---3---3---3-|
E|-------------------------------|

e|-2---2---2---2---0---0---0---0---2---2---2---2-|
B|-2---2---2---2---3---3---3---3---2---2---2---2-|
G|-4---4---4---4---2---2---2---2---4---4---4---4-|
D|-4---4---4---4---2---2---2---2---4---4---4---4-|
A|-2---2---2---2---0---0---0---0---2---2---2---2-|
E|-----------------------------------------------|

e|-5---5---5---5---3---3---3---3-|
B|-5---5---5---5---4---4---4---4-|
G|-5---5---5---5---5---5---5---5-|
D|-5---5---5---5---5---5---5---5-|
A|-3---3---3---3---3---3---3---3-|
E|-------------------------------|

  
  Outtro
e|-------------------|
B|-----------------7-|
G|-----------------7-|
D|-----4-------5---7-|
A|-2-------3-------5-|
E|-------------------|
            
Submit corrections

comments powered by Disqus
↑ Back to top | Rocket Summer Tabs for Good News. Lyrics for acoustic guitar and electric guitar. Tablatures and chords are parodies/interpretations of the original songs. You may use it for private study, scholarship, research or language learning purposes only