» » »

Goodbye Waves And Driveways Tabs (ver.2)

Artists:  A B C D E F G H I J K L M N O P Q R S T U V W X Y Z # 

Goodbye Waves And Driveways Tabs (ver.2)

Rocket Summer
Rating:
4/5 (2 votes)

Tabs too difficult? Try these video lessons and learn fast.
                (Intro)
Great song to listen to and play. So far I've only got the intro. 
Drop D
E------------0---0---0------0----------------2-------0---0------0------|
B--------------------3----3-------3----2-----------------3----3--------|
G---6----6-----2-----2--2---------2----2--------1--1-----2--2----------|
D---7--7-------------0-----------------------------------0-------------|
A---0----------------0-----------------------------------0-------------|
D------------4-------0------------4--4-----4----2--------0-------------|

E------------0---0---0------0-------------------0----------------------|
B--------------------3----3-------0----------0------------0------------|
G---6----6-----2-----2--2--------------2-------------2--------1--------|
D---7--7-------------0-------------------------------------------------|
A---0----------------0-------------------------------------------------|
D------------4-------0------------4--4----4-----2--2---2------2--------|
            
Tabs too difficult? Try these video lessons and learn fast.


comments powered by Disqus
↑ Back to top | Tablatures and chords are parodies/interpretations of the original songs. You may use it for private study, scholarship, research or language learning purposes only