» » »

Rocket Summer, Goodbye Waves And Driveways Tabs (ver.1)

Artists:  A B C D E F G H I J K L M N O P Q R S T U V W X Y Z # 

Goodbye Waves And Driveways Tabs (ver.1)

Rocket Summer Tabs
Rating:
4/5 (6 votes)
Goodbye Waves And Driveways lessons Tabs too difficult? Try these video lessons and learn fast
                Goodbye Waves and Drive Ways – The Rocket Summer - Hello, Good Friend.

Awesome song. I did my best to hear this all, if you can find any mistakes 
or figure out the bridge, lemme know. Oh and it’s my first tab.

UPDATED 5/6/09: Thanks to guyalexander.

Drop D Tuning

Intro:
E------------0---0---0------0----------------2----------0---0------0------|
B--------------------3----3—-(3)--3----2--------------------3----3—-(3)---|
G---6----6-----2-----2--2---------2----2--------1---1-------2--2----------|
D---7--7-------------0--------------------------------------0-------------|
A---0----------------0--------------------------------------0-------------|
D------------4-------0------------4--4-----4----2-2---2-----0-------------|

E------------0---0---0------0-------------------0----------------------|
B--------------------3----3--(3)--0----------0------------0------------|
G---6----6-----2-----2--2--------------2-------------2--------1--------|
D---7--7-------------0-------------------------------------------------|
A---0----------------0-------------------------------------------------|
D------------4-------0------------4--4----4-----2--2---2------2--------|

Verse 1:
E------------0---0---0------0----------------2----------0---0------0------|
B--------------------3----3—-(3)--3----2--------------------3----3—-(3)---|
G---6----6-----2-----2--2---------2----2--------1---1-------2--2----------|
D---7--7-------------0--------------------------------------0-------------|
A---0----------------0--------------------------------------0-------------|
D------------4-------0------------4--4-----4----2-2---2-----0-------------|
(1)Just     walk    away,     Gather your thoughts, for the second wave
(2)But we stand here both proud both wrong and right, throwing cheap shots
 in this Stubborn fight

E------------0---0---0------0-------------------0-------------------(0)|
B--------------------3----3--(3)--0----------0------------0-------(0)--|
G---6----6-----2-----2--2--------------2-------------2--------1-(1)----|
D---7--7-------------0-------------------------------------------------|
A---0----------------0-------------------------------------------------|
D------------4-------0------------4--4----4-----2--2---2------2--------| x 2
Of this argument, of this epic changing day, it’s crazy to think that an hour
ago all things were great.
And our lives are so intertwined in one, we’re just so stuck in this moment
It’s clear that we’re coming undone.

Pre-Chorus:
E---0--------5-4---0-----0------0-----0----------|
B---2----2---------3-------3------3-----3--(3)---|
G---2—-2-----------2--2------2------2-----2------|
D---2--------------0-----------------------------|
A---0--------------0-----------------------------|
D---0--------------0-----------------------------| x 3
And you see, it’s hard for me to breathe,
When I get all worked up with these feelings
And I don’t know exactly how it is

E---0------0-------0------0-----0------0------0----|
B---0----0-----0---0----0-------0----0-----0--0----|
G---2--2-----2-----1--1---------2--2-----2----1----|
D---2--------------2------------2-------------2----|
A---0--------------0------------0-------------0----|
D--------------------------------------------------|
That we can be so mad we considered not to exist
We both know there’s so much love clenched within our fists.

Chorus:
E------0-------0---------------------------------------------------|
B---3--2----3--2----0-------0-------3--2----3--2------------2--0---|
G---2--2----2--2----1--2----1--2----2--2----2--2----1--2----2--2---|
D------------------(2)-2---(2)-2--------------------2--2-----------|
A------------------------------------------------------------------|
D--(4)(4)--(4)(4)--(2)(2)--(2)(2)--(0)(0)--(0)(0)--(2)(2)--(2)(2)--|
Goodbye waves in the drive way just resonate, And yes I’m throwing it
right back at her, while we’re drowning in rivers from our faces

E------0-------0---------------------------------------------------|
B---3--2----3--2----0-------0-------3--2----3--2---------------3---|
G---2--2----2--2----1--2----1--2----2--2----2--2-------1-------2---|
D------------------(2)-2---(2)-2-----------------------2-----------|
A------------------------------------------------------------------|
D--(4)(4)--(4)(4)--(2)(2)--(2)(2)--(0)(0)--(0)(0)-----(2)-----(4)--|
We just want to know if this, is this over? Trembling silence fills the
air as we stand here, so impaired, but so aware.

Verse 2:
E------------0---0--0------0----------------2----------0--0------0-----2-4|
B-------------------3----3—-(3)--3----2-------------------3---------------|
G---6----6-----2----2--2---------2----2--------1---1------2--0/2---2/4----|
D---7--7------------0-------------------------------------0---------------|
A---0---------------0-------------------------------------0---------------|
D------------4------0------------4--4-----4----2-2---2----0---------------|

E-------9--------7--------5-----5------5------------5--------4-----x---|
B-----5-5-5----5---5----5-5-5---5-5----5-5---5----5---5----5---5---x---|
G---6--------7--------7-------7-----7------7----7--------7---------2---|
D------------------------------------------------------------------2---|
A------------------------------------------------------------------0---|
D----------------------------------------------------------------------|
Sit in this house, alone with fresh photographs, and I just can’t relax.

E------0-----2-4--|
B-----------------|
G--0/2---2/4------|
D-----------------|
A-----------------|
D-----------------|

E-------9--------7--------5-----5------5-------0----0-0----0-0------0--|
B-----5-5-5----5---5----5-5-5---5-5----5-5-----2----2-0----0-0----0----|
G---6--------7--------7-------7-----7------7---2--2---2--2---1--1------|
D----------------------------------------------2------2------2---------|
A----------------------------------------------0------0------0---------|
D----------------------------------------------0------0------0---------|
Like cigarette smoke, I’m starting to choke on this, half of my soul’s on
The road with a girl in a dress.

Pre-Chorus

Chorus

-After “as we stand here” (3:41) I can’t hear the guitar anymore because of
 all the other instruments kicking in, at least until the end of the bridge
 or whatever. -

So hey now, maybe we’re just being stupid, Hey, maybe we’re just being dumb,
No, hey, maybe it’s time that we stopped and we realize that, flag in the
wind we are one, and how at first it makes so cute and lovely, the battle can
can be torn to shreds, with time and patience, and love and affection, we can
beat this with needles and thread, because I love you! And you love me, and
nothing will make this leave, I said, I love you, and you love me, and nothing
will make, make, make, make this leave. So remember me, yeah… remember me,
yeah. Remember me…

Outro:
E------------0---0--0-|
B-------------------3-|
G---6----6-----2----2-|
D---7--7------------0-|
A---0---------------0-|
D------------4------0-|
Don’t       Walk    Away.
            

comments powered by Disqus
↑ Back to top | Rocket Summer Tabs for Goodbye Waves And Driveways. Lyrics for acoustic guitar and electric guitar. Tablatures and chords are parodies/interpretations of the original songs. You may use it for private study, scholarship, research or language learning purposes only