» » »

Rocket Summer, Do You Feel Tabs (ver.1)

Artists:  A B C D E F G H I J K L M N O P Q R S T U V W X Y Z # 

Do You Feel Tabs (ver.1)

Rocket Summer Tabs
 Rating:
4.3/5 (6 votes)
Do You Feel lessons Tabs too difficult? Try these video lessons and learn fast
                any questions just comment and ill reply on the comments bit at the bottom

i don't think ive missed any notes here, i think this is a complete tab

x-dead notes (to give you an idea of the strumming)

Intro: (whole thing times 2)
--------6-------6------------|
---8--------9----------------|
-----8----8---8---8----------| x3
-----------------------------|
-----------------------------|
-----------------------------|

-----6-------6----------|
-8-------6--------------|
---8---8---8---8--------|x1
------------------------|
------------------------|
------------------------|

second time through
----------------------|
------8~--------------|
------8~--------------|
----------------------|
----------------------|
----------------------|

Chords come in 0:18 (ALSO VERSE 1) ((WITH VERSE SHOWN UNDERNEATH CHORUS)
-----------------------------|
-----------------------------|
--5~--------8~---------------|
--5~--6~----8~--8~-----------|
--3~--6~----6~--8~-----------|
------4~--------6~-----------|

Verse for 2nd guitar: whole thing x2 this is played for both verses!
--------6-------6------------|
---8--------9----------------|
-----8----8---8---8----------| x3
-----------------------------|
-----------------------------|
-----------------------------|

-----6-------6----------|
-8-------6--------------|
---8---8---8---8--------|x1
------------------------|
------------------------|
------------------------|

second time through
-------------------------|
------8~---6~------------|
------8~---8~------------|
-------------------------|
-------------------------|
-------------------------|

Chorus 1: guitar onee
------------------------------------------------|
------------------------------------------------|
---5-5-5-x---------------8-8-8-x----------------|
---5-5-5-x---6-6-6-6-x---8-8-8-x---8-8-8-8-x----|
---3-3-3-x---6-6-6-6-x---6-6-6-x---8-8-8-8-x----|
-------------4-4-4-4-x-------------6-6-6-6-x----|

--------------------------------------------------|
--------------------------------------------------|
---5-5-5-x---------------8-8-x-x-x-x--------------|
---5-5-5-x---6-6-6-6-x---8-8-x-x-x-x--8-8-x-x-x-x-|
---3-3-3-x---6-6-6-6-x---6-6-x-x-x-x--8-8-x-x-x-x-|
-------------4-4-4-4-x----------------6-6-x-x-x-x-|

------------------------------------------------------|
------------------------------------------------------|
---5-5-5-x---------------8-8-8-x----------------------|
---5-5-5-x---6-6-6-6-x---8-8-8-x---8-8-8-8-x---3~--6~-|
---3-3-3-x---6-6-6-6-x---6-6-6-x---8-8-8-8-x---3~--6~-|
-------------4-4-4-4-x-------------6-6-6-6-x---1~--4~-|

Chorus 1: Guitar Two:
-------------------------------------------------|
-----8-8-8-x--9-9-9-9-9-x---8-8-8-x--6-6-6-6-6---|
-----8-8-8-x--8-8-8-8-8-x---8-8-8-x--8-8-8-8-8---|x1
-------------------------------------------------|
-------------------------------------------------|
-------------------------------------------------|

-------------------------------------------------|
-8-8-8-x--9-9-9-9-9---8-8-x-x-x-x---6-6-x-x-x-x--|
-8-8-8-x--8-8-8-8-8---8-8-x-x-x-x---8-8-x-x-x-x--|x1
-------------------------------------------------|
-------------------------------------------------|
-------------------------------------------------|

-------------------------------------------------|
-----8-8-8-x--9-9-9-9-9-x---8-8-8-x--6-6-6-6-6---|
-----8-8-8-x--8-8-8-8-8-x---8-8-8-x--8-8-8-8-8---|x1
-------------------------------------------------|
-------------------------------------------------|
-------------------------------------------------|

2nd Verse 0:50 :same as first

2nd Chorus: 1:09 same as first except third bit

-----------------------------------------------|
-----------------------------------------------|
---5-5-5-x---------------8-8-8-x---------------|
---5-5-5-x---6-6-6-6-x---8-8-8-x---8-8-8-8-x---|
---3-3-3-x---6-6-6-6-x---6-6-6-x---8-8-8-8-x---|
-------------4-4-4-4-x-------------6-6-6-6-x---|

----------------------------------------------|
----------------------------------------------|
----------------------------------------------|
---3-3-3-3-3-3-3-3--6-6-6-6--8-8-8-8----------|
---3-3-3-3-3-3-3-3--6-6-6-6--8-8-8-8----------|
---1-1-1-1-1-1-1-1--4-4-4-4--6-6-6-6----------|

Then at 1:27
Guitar One:
------------------------------------|
------------------------------------|
------------------------------------|x2
--6-6----8-8--10-10--10-10----------|
--6-6----8-8--10-10--10-10----------|
--4-4----6-6---8--8---8--8----------|


---------------|
---------------|
---------------|
----6-6---8-8--|
----6-6---8-8--|
----4-4---6-6--|

Guitar Two
------------------6-------6-|
---6-8--6-8--6-8--x--6-8--x-|
---8-8--8-8--8-8--8--8-8--8-|x2
----------------------------|
----------------------------|
----------------------------|

-------------8-8------------------|
---6-8--6-8--x-x----9-9-8-8-6-6---|
---8-8--8-8--6-6----8-8-8-8-8-8---|
----------------------------------|
----------------------------------|
----------------------------------|

-----------------------6-8-8-8-8-8-8-|
---9-9-9-9-9-9-9-9---x-x-x-x-x-x-x-x-|
---8-8-8-8-8-8-8-8---x-8-8-8-8-8-8-8-|
-------------------------------------|
-------------------------------------|
-------------------------------------|

Chorus 1:45 Guitar one:same as second and first except for the thrid bit
Guitar two is the same as 1st and second

-----------------------------------------------|
-----------------------------------------------|
---5-5-5-x---------------8-8-8-x---------------|
---5-5-5-x---6-6-6-6-x---8-8-8-x---8-8-8-8-x---|
---3-3-3-x---6-6-6-6-x---6-6-6-x---8-8-8-8-x---|
-------------4-4-4-4-x-------------6-6-6-6-x---|

---------------------------------------------|
---------------------------------------------|
---------------------------------------------|
---3-3-3-x--6-6-6-6--------------------------|
---3-3-3-x--6-6-6-6--------------------------|
---1-1-1-x--4-4-4-4--------------------------|

PLAY AGAIN and this time the third bit is

-----------------------------------------------|
-----------------------------------------------|
---5-5-5-x---------------8-8-8-x---------------|
---5-5-5-x---6-6-6-6-x---8-8-8-x---8-8-8-8-x---|
---3-3-3-x---6-6-6-6-x---6-6-6-x---8-8-8-8-x---|
-------------4-4-4-4-x-------------6-6-6-6-x---|

---------------------------------------------------------------|
---------------------------------------------------------------|         getting louder
---------------------------------------------------------------|               here
---3-3-3-3-3-3-3-3--6-6-6-6-6-6-6-6-------x2        -3-6-------|
---3-3-3-3-3-3-3-3--6-6-6-6-6-6-6-6-------  2nd time-3-6-x-----|8 each
---1-1-1-1-1-1-1-1--4-4-4-4-4-4-4-4-------          -1-4-------|


then finally

-------------10-----------|
-----11-------------------|
---8----8/10----10/12-----|
--------------------------|
--------------------------|
--------------------------|

well there you have itt! i know thats very long and i hope you can understand it, just 
are lots of little bits that are different that i have to take into account. If you cant 
it comment me on the tab and ill reply on my comments page like i said
its a tunee, thanks, hugh
xx
            
Submit corrections

comments powered by Disqus
↑ Back to top | Rocket Summer Tabs for Do You Feel. Lyrics for acoustic guitar and electric guitar. Tablatures and chords are parodies/interpretations of the original songs. You may use it for private study, scholarship, research or language learning purposes only