» » »

Cross My Heart Tabs (ver.1)

Artists:  A B C D E F G H I J K L M N O P Q R S T U V W X Y Z # 

Cross My Heart Tabs (ver.1)

Rocket Summer
Rating:
5/5 (1 vote)

Tabs too difficult? Try these video lessons and learn fast.
                -------------------------------------------------------------------------------
                         Cross My Heart (Acoustic) - The Rocket Summer
-------------------------------------------------------------------------------


This song is great.

I tabbed it primarily from the single acoustic video I
could find of him playing this song (due to requests).


Tuning: Standard


  Cross my heart...                 In fact I wish your heart was mine...
e|7~---8~--------8~---|           e|--------------------3-3--3--3--3-2~---|
B|8~---8~---8~---8~---|           B|----------1~--------3-3--3--3--3-3~---|
G|0~---7~---0~---0~---|           G|----------0~--------2-2--2--2--2-2~---|
D|-----7~---x~---0~---| x3        D|2~---4~---2~---5~---------------------|
A|----------7~---7~---|           A|2~---2~---3~---2~---------------------|
E|---------------8~---|           E|0~------------------------------------|


  And I can hear...                  We steered that way...
e|8~---10~--10~---9~---|           e|8~---5~---|
B|8~---8~---8~----8~---|           B|8~---7~---|
G|0~---7~---0~----7~---| x3        G|0~---7~---|
D|0~---0~---x-----7~---|           D|0~--------|
A|7~--------7~----0~---|           A|7~--------|
E|8~-------------------|           E|8~--------|



e|-----------------|               e|3---3---0---3---|
B|8----8---8---8---|               B|3---1---0---1---|
G|0----0---0---0---| x2            G|0---2---0---0---| x2
D|x----0---0---x---|               D|0---2---2---2---|
A|10---7---x---7---|               A|2---0---2---3---|
E|-----8---7---5---|               E|3-------0-------|



v=====================Repeat This Part===========================v

  Do you wanna get away...
e|7x--8x-7x-8x--7x-7x--8x-7x-8x---|
B|8x--8x-8x-8x--8x-8x--8x-8x-8x---|
G|0x--0x-0x-0x--0x-0x--0x-0x-0x---| x2
D|--------------------------------|
A|--------------------------------|
E|--------------------------------|

e|7x--8x-7x-8x--7x-7x--8x-7x-8x---|
B|8x--8x-8x-8x--8x-8x--8x-8x-8x---|
G|x---x--x--x---x--x---x--x--x----| x2
D|7x--7x 7x 7x--7x-7x--7x-7x-7x---|
A|--------------------------------|
E|--------------------------------|

e|7x--8x-7x-8x--7x-7x--8x-7x-8x----7x--8x-7x-8x--7x-7x--8x-7x-8x---|
B|8x--8x-8x-8x--8x-8x--8x-8x-8x----8x--8x-8x-8x--8x-8x--8x-8x-8x---|
G|0x--0x-0x-0x--0x-0x--0x-0x-0x----x---x--x--x---x--x---x--x--x----|
D|x---x--x--x---x--x---x--x--x-----0x--0x-0x-0x--0x-0x--0x-0x-0x---|
A|7x--7x-7x-7x--7x-7x--7x-7x-7x------------------------------------|
E|-----------------------------------------------------------------|

e|7x--8x-7x-8x--7x-7x--8x-7x-8x---|
B|8x--8x-8x-8x--8x-8x--8x-8x-8x---|
G|0x--0x-0x-0x--0x-0x--0x-0x-0x---| x2
D|0x--0x-0x-0x--0x-0x--0x-0x-0x---|
A|x---x--x--x---x--x---x--x--x----|
E|8x--8x-8x-8x--8x-8x--8x-8x-8x---|

^=====================Repeat This Part===========================^
  


  'Cause even though we never get things right...
e|-----------------3---|
B|3---3-----0------1---|
G|5---0-----0---0x-0---|
D|5---4-----5---4x-2---|
A|0---5---6-7---5x-3---|
E|---------------------|

  But it's mine to decide when I'll be alright...
e|------------------|
B|--------10---10---|
G|0---0---9----0----|
D|0---0---0----0----|
A|x---5---7----9----|
E|5---7---8----10---|

And this is where the video of Bryce playing ends so I'll have to see if I
can find it somewhere else and finish the tab.

Let me know what you think!


  I know you're going crazy...
e|7-8-10---7-8-10---7-8-10---5/7---8-8--7--8-8--8-8--7---|
B|8-8-8----8-8-8----8-8-8----8-----8-8--8--8-8--8-8--0---|
G|0-0-0----0-0-0----0-0-0----0-----0-0--0--0-0--0-0--0---| x2
D|0-0-0----0-0-0----x-x-x----------0-0--0--0-0--0-0--0---|
A|------------------7-7-7----------7-7--7--7-7--7-7--7---|
E|---------------------------------8-8--8--8-8--8-8--8---|



Cross my heart, hope to die
I swear I won't say what happened that night
So starting today things are gonna be alright
Your best you tried, and yeah you did fine
No better than fine, perfect in my mind
In fact, I wish your heart was mine
And I can hear the memory in my ears
Back to the years and all those tears
But hear me when I say I'm glad we steered that way
Because now we're here.

Do you want to get away? Get in the car we can leave today
Do you want to celebrate our just made little holiday?
'Cause now today is your day
And all that stuff you used to take
I'm glad you threw all that away cause now you look so great
You never need to be afraid just know you went the right way

'Cause even though we never get things right
And it gets so old just saying we'll keep trying
But it's mine to decide when I'll be alright

I know you're going crazy (crazy)
But happy is all that you make me (all you make me)
And now things are gonna get better baby
I know everything went wrong OK (OK)
But now it's time to get some better days (some better days)
'Cause I don't want to keep acting this way

'Cause man I know we never get things right
And it gets so old just saying we'll keep trying
But it's mine to decide when and if I'll be alright...
And that's just a thing that take time

So keep going 'till you know when it's time, when it's right
Keep showing yourself in that light
'Cause back in school man that gets cruel
But one thing is true is that man now look at you
Your heart is big enough for two

'Cause I can hear the memories in my ears
Back to the years and all those tears
But hear me when I say I'm glad 'cause we're here

I know you're going crazy (crazy)
But happy is all that you make me (all you make me)
And now things are gonna get better baby
I know everything went wrong OK (OK)
But now it's time to get some better days (get better days)
'Cause I don't want to keep acting this way

'Cause man I know we never get things right
And it gets so old just saying we'll keep trying
But it's mine to decide when and if I'll be alright...
And that's just a thing that take time





| PM palm mute
| /  slide up
| \  slide down
| h  hammer-on
| p  pull-off
| ~  let ring
| b  bend
| *  substitute
| x  mute note
| +  harmonic

===============================================================================
            
Tabs too difficult? Try these video lessons and learn fast.


comments powered by Disqus
↑ Back to top | Tablatures and chords are parodies/interpretations of the original songs. You may use it for private study, scholarship, research or language learning purposes only