» » »

Rocket Summer, Christmas Present Tabs (ver.2)

Artists:  A B C D E F G H I J K L M N O P Q R S T U V W X Y Z # 

Christmas Present Tabs (ver.2)

Rocket Summer Tabs
 Rating:
4.2/5 (5 votes)
Christmas Present lessons Tabs too difficult? Try these video lessons and learn fast
1
                'ello Gov'na
This is my first tab, so be nice.  I think I got it most of it right, considering that I 
to tab it with one ipod headphone.  My friend needed it for a book report and I found 
in the kindness of my heart to do this. So here it is, enjoy!

Intro/verses                A      Bm     strum D D2 D D A
e|-----------------0---|------------2|
b|---------------3---3-|----2-------3|
g|---------0---2------2|----2-----4-4|
d|--4-0------0---------|--2-2-2--0---|                        Rpt 3x
a|2----4-0-------------|0------------|
e|---------------------|-------------|

Chorus
G A D D D2 D D2 Rpt3x  G A

Bridge  D        A        D          D Dsus D2 D    strum Bm G D A Bm G D
e|------2-2-2-2-----------2-2-2-2--|------3/2---0-|
b|---------------2-2-2-2-----------|----3-----3---|
g|---------------------------------|--2-----------|
d|------0-0-0-0-----------0-0-0-0--|-0------------|
a|---------------0-0-0-0-----------|--------------|
e|---------------------------------|--------------|

Ending                     D
e|-------------------------2-|
b|-------------------------3-|
g|--------------------0h2--2-|
d|-----0h2-0---4-0-----------|
a|-0h2-------2-----4-0-------|
e|---------------------------|
            
Submit corrections

comments powered by Disqus
↑ Back to top | Rocket Summer Tabs for Christmas Present. Lyrics for acoustic guitar and electric guitar. 1 Tablatures and chords are parodies/interpretations of the original songs. You may use it for private study, scholarship, research or language learning purposes only