» » »

Break It Out Bass tabs (ver.1)

Artists:  A B C D E F G H I J K L M N O P Q R S T U V W X Y Z # 

Break It Out Bass tabs (ver.1)

Rocket Summer
Rating:
4/5 (4 votes)

Hard to play? Try these video lessons and learn fast.
                Drum Intro
-

Verse
G|-----------------------------|
D|-----------------------------|
A|-4-4--4-7-7--7-0-0--0-2-2-3-3|  (x3)
E|-----------------------------|
(Can be played as A|-7- or E|-0-. Either sounds fine)

Chorus
G|-----------------------------------------|
D|-----------------------------------------|
A|-0-0-------4-4--------0-0-------4-4------| (x2)
E|-----0-0-0-----4-4-4------0-0-0-----4-4--|

Post Chorus/Pre Verse
G|----------|
D|----------|
A|-4-4------|
E|------0-0-|

Alternate Verse
G|-----------------------------|
D|-----------------------------|
A|-4-4--4-7-7--7-0-0--0-2-2-3-3|  (x2)
E|-----------------------------|

G|-------------------------------9-8---------2------------|
D|---------9h11-11-11-11-9-----------9-9------------------|
A|-4-4-7h9-----------------9-7-7---------0-0---0-0-2-2-3-3|
E|--------------------------------------------------------|

G|----------------------------------------------|
D|----------------------------------------------|
A|-4-4--4-4-4-----------------------------------|
E|------------0-0--0-0-4-5-5--5-5-5--7-7-7-7-7\-|

Chorus
G|-----------------------------------------|
D|-----------------------------------------|
A|-0-0-------4-4--------0-0-------4-4------| (x2)
E|-----0-0-0-----4-4-4------0-0-0-----4-4--|

Bridge
G|---------------------------------|
D|---------------------------------|
A|---------3-3-3-3-4-4-4-4-0-0-0-0-| (x2)
E|-0-0-0-0-------------------------|

G|----------------------------------|
D|--------------------1-2---------1-|
A|-------2-3-2-0-2--4-----2-0-2-4---|
E|-0-2-4----------------------------|

G|-------------------------------------|
D|--------------------1-2--------------|
A|-------2-3-2-0-2--4-----2-0-0--0-0-0-|
E|-0-2-4-------------------------------|

Chorus
G|-----------------------------------------|
D|-----------------------------------------|
A|-0-0-------4-4--------0-0-------4-4------| (x4)
E|-----0-0-0-----4-4-4------0-0-0-----4-4--|

End On
G|------|
D|------|
A|------|
E|-9-9\-|


I think thats exactly as it should be. Tell me if its not..
            
Hard to play? Try these video lessons and learn fast. | Correct




comments powered by Disqus
↑ Back to top | Tablatures and chords are parodies/interpretations of the original songs. You may use it for private study, scholarship, research or language learning purposes only