» » »

Rocket Summer, All I Have Bass tabs (ver.1)

Artists:  A B C D E F G H I J K L M N O P Q R S T U V W X Y Z # 

All I Have Bass tabs (ver.1)

Rocket Summer Tabs
Rating:
0/5 (0 votes)
All I Have lessons Tabs too difficult? Try these video lessons and learn fast
                Hey Y'all, this is my first tab, kinda messy I know just let me know how it is.
I'm pretty sure most of it's right but I wouldn't be surprised if some of it is wrong. Thanks

(1 bar= 4 beats)(any 10's are 10's not 1-0's)

	Intro
G |10~-----|7~------|2~------|--------|	\
D |--------|--------|--------|--------|	 |
A |--------|--------|--------|--------|	 |
E |--------|--------|--------|--------|	 |
					 | x2  (10 not 1-0)
G |10~-----|7~------|2~------|-----5~-|	 |
D |--------|--------|--------|--------|	 |
A |--------|--------|--------|--------|	 |
E |--------|--------|--------|--------|	/

G |--------|--------|--------|--------|
D |--------|--------|--------|--------|
A |--------|--------|--------|--------|	x2 
E |10~-----|7~------|2~------|--------|

	Verse 1
G |--------|--------|--------|--------|
D |--------|--------|--------|--------|	
A |8-------|5-------|0-------|---3-3-7|	x2
E |--------|--------|--------|--------|

G |--------|--------|--------|--------|
D |--------|--------|--------|--------|	
A |8~------|5~------|0~------|---3-3-7|	
E |--------|--------|--------|--------|

G |----------|--------|--------|--------|
D |---10-108-|---7-75-|--------|--------|	
A |8~--------|5~------|0~------|--------|	
E |----------|--------|--------|--------|

	Chorus 1
G |--------|--------|--------|--------|
D |--------|--------|--------|--------|
A |--------|3-----3-|--------|0-----0-|
E |1-----1-|--------|3-----3-|--------|

G |--------|--------|--------|--------|
D |--------|--------|--------|--------|
A |--------|3-----3-|--------|--77775~|
E |1-----1-|--------|3-----3~|--------|

G |--------|--------|--------|--------|
D |--------|--------|--------|--------|
A |--------|3-----3-|--------|0-----0-|
E |1-----1-|--------|3-----3-|--------|

G |--------|--------|--------|--------|
D |--------|--------|--------|--------|
A |--------|3-----3-|--------|0~------|
E |1-----1-|--------|3-----3-|--------|

	Verse 2
G |--------|--------|--------|--------|
D |--------|--------|--------|--------|	
A |8~------|5~------|0~------|--------| x3
E |--------|--------|--------|--------|

G |----------|--------|--------|--------|
D |---10-108-|---7-75-|--------|--------|
A |8~--------|5~------|0~------|--------|
E |----------|--------|--------|--------|

	Chorus 2
G |--------|--------|--------|--------|
D |--------|--------|--------|--------|
A |--------|3-----3-|--------|0-----0-|
E |1-----1-|--------|3-----3-|--------|
					
G |--------|--------|--------|--------|
D |--------|--------|--------|--------|
A |--------|3-----3-|--------|--77775~|
E |1-----1-|--------|3-----3-|--------|

G |--------|--------|--------|--------|
D |--------|--------|--------|--------|
A |--------|3-----3-|--------|0-----0-|
E |1-----1-|--------|3-----3-|--------|

	Bridge 1
G |--------|--------|--------|--------|
D |--------|--------|--------|--------|
A |--------|--------|--------|--------| x3
E |1-1-1-1-|1-1-1-1-|3-3-3-3-|3-3-3-3-|

G |--------|--------|--------|--------|
D |--------|--------|--------|--------|
A |3-----3-|--------|--------|--------|
E |--------|1-----1-|3~------|--------|

	Solo/Chorus
G |--------|--------|--------|--------|
D |--------|--------|--------|--------|
A |--------|3-----3-|--------|0-----0-|
E |1-----1-|--------|3-----3-|--------|
					
G |--------|--------|--------|--------|
D |--------|--------|--------|--------|
A |--------|3-----3-|--------|--77775~|
E |1-----1-|--------|3-----3-|--------|

	Final Chorus
G |--------|--------|--------|--------|
D |--------|--------|--------|--------|
A |--------|3-----3-|--------|0-----0-|
E |1-----1-|--------|3-----3-|--------|
					
G |--------|--------|--------|--------|
D |--------|--------|--------|--------|
A |--------|3-----3-|--------|--77775~|
E |1-----1-|--------|3-----3-|--------|

G |--------|--------|--------|--------|
D |--------|--------|--------|--------|
A |--------|3-----3-|--------|0-----0-|
E |1-----1-|--------|3-----3-|--------|
					   [Second time only]
G |--------|--------|--------|--------|         |--------|
D |--------|--------|--------|--------|	   |--------|
A |--------|3-----3-|--------|--77775~|	   |0~------|
E |1-----1-|--------|3-----3-|--------|	   |--------|
            

comments powered by Disqus
↑ Back to top | Rocket Summer Bass for All I Have. Lyrics for acoustic guitar and electric guitar. Tablatures and chords are parodies/interpretations of the original songs. You may use it for private study, scholarship, research or language learning purposes only