» » »

Rob Zombie, More Human Than Human Tabs (ver.1)

Artists:  A B C D E F G H I J K L M N O P Q R S T U V W X Y Z # 

More Human Than Human Tabs (ver.1)

Rob Zombie Tabs
 Rating:
4/5 (4 votes)
More Human Than Human lessons Tabs too difficult? Try these video lessons and learn fast
                Tune down 1½ steps

Intro (bass) Play this till 0:40
 E||---------------------------------------------------------------------------|
 B||*-------------------------------------------------------------------------*|
F#||*-------------------------------------------------------------------------*|
C#||--x-x-x-------------x-x-x-x-x-----------x-x-x-x-x-x---------x-x-x-x-x------|
   3rd time through there is female orgasm sample

  guitar comes in at 0:20 (1 guitar)
c#|------------------------------------------------------|
F#|*----------------------------------------------------*|
 E|------------------------------------------------------|
 B|--2--2--rest----------------2--2--rest----------------|
F#|*-2--2----------------------2--2---------------------*|
C#|--0--0----------------------0--0----------------------|

  Use metal slide  hold hole time
           ________________     _________     __________     ___
          /                \   /         \   /          \   /   \
|---------3////////12---(12)\-\4/14---(14)\-\4//15---(15)\-\5-----17-----|
|---------3////////12---(12)\-\4/14---(14)\-\4//15---(15)\-\5//17----17\-|
|---------3////////12---(12)\-\4/14---(14)\-\4//15---(15)\-\5//17----17\-|
|---------3////////12---(12)\-\4/14---(14)\-\4//15---(15)\-\5//17----17\-|
|------------------------------------------------------------------------|
|------------------------------------------------------------------------|
   __________     __________     __________     __     ___
  /          \   /          \   /          \   /  \   /   \
|\3//12---(12)\-\4//14---(14)\-\4//15---(15)\-\4-12\--12\10--12\-|
|\3//12---(12)\-\4//14---(14)\-\4//15---(15)\-\4-12\--12\10--12\-|
|\3//12---(12)\-\4//14---(14)\-\4//15---(15)\-\4-12\--12\10--12\-|
|\3//12---(12)\-\4//14---(14)\-\4//15---(15)\-\4-12\--12\10--12\-|
|----------------------------------------------------------------|
|----------------------------------------------------------------|
   ______      _________      ________      __
  /      \    /         \    /        \    /  \
|-12---(12)\-\4//14---(14)\-\4/15---(15)\-\5----17------|
|-12---(12)\-\4//14---(14)\-\4/15---(15)\-\5/17----17\--|
|-12---(12)\-\4//14---(14)\-\4/15---(15)\-\5/17----17\--|
|-12---(12)\-\4//14---(14)\-\4/15---(15)\-\5/17----17\--|
|-*-----------------------------------------------------|
|-------------------------------------------------------|
   ________________________________________
  /                                        \
|-3//////////////////////7////////////////26\-----------|
|-3//////////////////////7////////////////26\-----------|
|-3//////////////////////7////////////////26\---silence-|
|-3//////////////////////7////////////////26\-----------|
|--start-slow---------------------end-fast$-------------|
|-------------------------------------------------------|
                           $ = over pickups

 Yeeeah   I am the astro creep   a demolition style hell A-mer-I-can freak
|--Singing-starts-at-1:07---------------------------------------------------|
|---------------------------------------------------------------------------|
|---------------------------------------------------------------------------|
|---------------------------------------------------------------------------|
|---------------------------------------------------------------------------|
|---------------------------------------------------------------------------|

Yeah   I am the crawling dead,  A phantom in a box, shadow in head.   Say
|---------------------------------------------------------------------------|
|---------------------------------------------------------------------------|
|---------------------------------------------------------------------------|
|---------------------------------------------------------------------------|
|---------------------------------------------------------------------------|
|---------------------------------------------------------------------------|

    Acid   a  suicide,  freedom of the blast.  Read the f**kin lies.  Yeah
|------------------------------------------------------------------------|
|------------------------------------------------------------------------|
|------------------------------------------------------------------------|
|-2---2--rest------------2---2--rest-------------------------------------|
|-2---2------------------2---2-------------------------------------------|
|-0---0------------------0---0-------------------------------------------|

    Scratch off the broken skin. Tear in to my heart, make me do it again. Yeah
|------------------------------------------------------------------------------|
|------------------------------------------------------------------------------|
|------------------------------------------------------------------------------|
|-2---2--rest---------------------2---2--rest----------------------------------|
|-2---2---------------------------2---2----------------------------------------|
|-0---0---------------------------0---0----------------------------------------|

                 yeah More hu-man than hu-man
|---------------------||--------------------------------|
|*---(play-4x)-------*||*-------(play-6x)-----(*-=-6th)*|
|------rest------rest-||---------------------(time-only)|
|--2--2----2-2--2-----||--2--2----------2--2----------2-|
|*-2--2----2-2--2----*||*-2--2--2-2-2-2-2--2--2-2-2-2-2*|
|--0--0----0-0--0-----||--0--0--0-0-0-0-0--0--0-0-0-0-0-|
                                pm……………       pm…………… *
           ________________     _________     __________     ___
          /                \   /         \   /          \   /   \
|(use-----3////////12---(12)\-\4/14---(14)\-\4//15---(15)\-\5-----17-----|
|--metal--3////////12---(12)\-\4/14---(14)\-\4//15---(15)\-\5//17----17\-|
|---slide)3////////12---(12)\-\4/14---(14)\-\4//15---(15)\-\5//17----17\-|
|---------3////////12---(12)\-\4/14---(14)\-\4//15---(15)\-\5//17----17\-|
|------------------------------------------------------------------------|
|------------------------------------------------------------------------|
   __________     __________     __________     __     ___
  /          \   /          \   /          \   /  \   /   \
|\3//12---(12)\-\4//14---(14)\-\4//15---(15)\-\4-12\--12\10--12\-|
|\3//12---(12)\-\4//14---(14)\-\4//15---(15)\-\4-12\--12\10--12\-|
|\3//12---(12)\-\4//14---(14)\-\4//15---(15)\-\4-12\--12\10--12\-|
|\3//12---(12)\-\4//14---(14)\-\4//15---(15)\-\4-12\--12\10--12\-|
|----------------------------------------------------------------|
|----------------------------------------------------------------|
   ______      _________      ________      __
  /      \    /         \    /        \    /  \
|-12---(12)\-\4//14---(14)\-\4/15---(15)\-\5----17-----|
|-12---(12)\-\4//14---(14)\-\4/15---(15)\-\5-17----17\-|
|-12---(12)\-\4//14---(14)\-\4/15---(15)\-\5-17----17\-|
|-12---(12)\-\4//14---(14)\-\4/15---(15)\-\5-17----17\-|
|------------------------------------------------------|
|------------------------------------------------------|
   ________________________________________
  /                                 Y-e-a-h\   I am the
|-3//////////////////////7////////////////26\----------|
|-3//////////////////////7////////////////26\----------|
|-3//////////////////////7////////////////26\--silence-|
|-3//////////////////////7////////////////26\----------|
|--start-slow---------------------end-fast$------------|
|------------------------------------------------------|

 jigsaw man.   I turn the world around with a skelaton hand.  Say
|----------------------------------------------------------------------|
|----------------------------------------------------------------------|
|----------------------------------------------------------------------|
|----------------------------------------------------------------------|
|----------------------------------------------------------------------|
|----------------------------------------------------------------------|

 I am electric head. A cannibal core a television said.  Yeah
|----------------------------------------------------------------|
|----------------------------------------------------------------|
|----------------------------------------------------------------|
|----------------------------------------------------------------|
|----------------------------------------------------------------|
|----------------------------------------------------------------|

      Do  not vict-im-izeuicide, read the mother f**ker psycoholic lies, yeah.
|----------------------------------------------------------------------------|
|----------------------------------------------------------------------------|
|----------------------------------------------------------------------------|
|-2---2--rest---------------------2---2--rest--------------------------------|
|-2---2---------------------------2---2--------------------------------------|
|-0---0---------------------------0---0--------------------------------------|

   In  to  a psychic  war.  I tear my soul apart and I eat it some more, yeah.
|----------------------------------------------------------------------------|
|----------------------------------------------------------------------------|
|----------------------------------------------------------------------------|
|-2---2--rest------------------2---2-rest------------------------------------|
|-2---2------------------------2---2-----------------------------------------|
|-0---0------------------------0---0-----------------------------------------|

                 Yeah      More hu-man  than hu-man
|---------------------||--------------------------------|
|*---(play-4x)-------*||*-------(play-6x)-----(*-=-6th)*|
|------rest------rest-||---------------------(time-only)|
|--2--2----2-2--2-----||--2--2----------2--2---------(2)|
|*-2--2----2-2--2----*||*-2--2--2-2-2-2-2--2--2-2-2-2(2*|
|--0--0----0-0--0-----||--0--0--0-0-0-0-0--0--0-0-0-0(0)|
                                pm……………       pm……………(*)
           ________________     _________     __________     ___
          /                \   /         \   /          \   /   \
|(use-----3////////12---(12)\-\4/14---(14)\-\4//15---(15)\-\5-----17-----|
|--metal--3////////12---(12)\-\4/14---(14)\-\4//15---(15)\-\5//17----17\-|
|---slide)3////////12---(12)\-\4/14---(14)\-\4//15---(15)\-\5//17----17\-|
|---------3////////12---(12)\-\4/14---(14)\-\4//15---(15)\-\5//17----17\-|
|------------------------------------------------------------------------|
|------------------------------------------------------------------------|

   __________     __________     __________     __     ___
  /          \   /          \   /          \   /  \   /   \
|\3//12---(12)\-\4//14---(14)\-\4//15---(15)\-\4-12\--12\10--12\-|
|\3//12---(12)\-\4//14---(14)\-\4//15---(15)\-\4-12\--12\10--12\-|
|\3//12---(12)\-\4//14---(14)\-\4//15---(15)\-\4-12\--12\10--12\-|
|\3//12---(12)\-\4//14---(14)\-\4//15---(15)\-\4-12\--12\10--12\-|
|----------------------------------------------------------------|
|----------------------------------------------------------------|
   ______      _________      ________      __
  /      \    /         \    /        \    /  \
|-12---(12)\-\4//14---(14)\-\4/15---(15)\-\5----17-----|
|-12---(12)\-\4//14---(14)\-\4/15---(15)\-\5-17----17\-|
|-12---(12)\-\4//14---(14)\-\4/15---(15)\-\5-17----17\-|
|-12---(12)\-\4//14---(14)\-\4/15---(15)\-\5-17----17\-|
|------------------------------------------------------|
|------------------------------------------------------|
   ________________________________________
  /                                        \                               Yeah
|-3//////////////////////7////////////////26\-----------------------------------|
|-3//////////////////////7////////////////26\--------------(neck)---------------|
|-3//////////////////////7////////////////26\-------------(pickup)--------------|
|-3//////////////////////7////////////////26\-----2--2-rest-2--2-rest-2--2-rest-|
|--start-slow---------------------end-fast$-------2--2------2--2------2--2------|
|-------------------------------------------------0--0------0--0------0--0------|
            
Submit corrections

comments powered by Disqus
↑ Back to top | Rob Zombie Tabs for More Human Than Human. Lyrics for acoustic guitar and electric guitar. Tablatures and chords are parodies/interpretations of the original songs. You may use it for private study, scholarship, research or language learning purposes only