» » »

Rob Thomas, Gasoline Tabs (ver.1)

Artists:  A B C D E F G H I J K L M N O P Q R S T U V W X Y Z # 

Gasoline Tabs (ver.1)

Rob Thomas Tabs
Rating:
3/5 (1 vote)
Gasoline lessons Tabs too difficult? Try these video lessons and learn fast
                -------------------------------------------------------------------------------
-------------------------------------------------------------------------------

This is sort of a dummy's version of the song, stripped down just enough to be
played with a three-piece (drum-bass-guitar) band. Plus I know nobody is
learning this song because they love Rob Thomas's nonexsistent solos. That said,
it's easy, listen to the song to get the timing, enjoy.

Tuning:Standard
Capo 2 (numbers are relative to the capo)


First Verse (Distortion)
e|---------------------------------------------------------------------------|
B|---------------------------------------------------------------------------|
G|----2-2--------------4-4---------------------------------------------------|
D|----2-2--------------4-4------------------------repeat as needed-----------|
A|----0-0--------------2-2---------------------------------------------------|
E|-0----------------0--------------------------------------------------------|
pm .  . .           .  . .

Second Verse/Bridge (Distortion)
e|---------------------------------------------------------------------------|
B|---------------------------------------------------------------------------|
G|----2-2--------4-4---------------------------------------------------------|
D|----2-2--------4-4------------------------------repeat as needed-----------|
A|----0-0--------2-2---------------------------------------------------------|
E|-0----------0--------------------------------------------------------------|

Chorus
e|---------------------------------------------------------------------------|
B|---------------------------------------------------------------------------|
G|----------------4-4-4-4-4-4-4-4-4-----------------4-4-4-4-4-4-4-4-4--------|
D|-2-2-2-2-2-2-2--4-4-4-4-4-4-4-4-2--2-2-2-2-2-2-2--4-4-4-4-4-4-4-4-4--------|
A|-2-2-2-2-2-2-2--2-2-2-2-2-2-2-2-2--2-2-2-2-2-2-2--2-2-2-2-2-2-2-2-2--------|
E|-0-0-0-0-0-0-0---------------------0-0-0-0-0-0-0---------------------------|

e|---------------------------------------------------------------------------|
B|---------------------------------------------------------------------------|
G|-9-9-9-9-9-9-9-9--8-8-8-8-8-8-8-8------------------------------------------|
D|-9-9-9-9-9-9-9-9--9-9-9-9-9-9-9-9--4-4-4-4-4-4-4-4--6-6-6-6-6-6-6-6--------|
A|-7-7-7-7-7-7-7-7--6-6-6-6-6-6-6-6--4-4-4-4-4-4-4-4--6-6-6-6-6-6-6-6--------|
E|-----------------------------------2-2-2-2-2-2-2-2--4-4-4-4-4-4-4-4--------|

Lyrics

Oh well oh well
I guess you got it all worked out so far
You adjust your reason
Until you see the light from where you are

But you can never win
You can never lose
That's the worst part
You can only say that what you want
Is where you are

(Chorus)
Beautiful girl
Won't you listen to me
Well I tried so hard to give you what you need
And it burned like gasoline

Oh well oh well
It never took a lot to make this hard
Cuz you were so off balance
And I knew all the words to set you off

But you can never win
You can never lose
That's the scorned heart
Then you throw your head back
And you laugh at where we are

(Chorus)
Beautiful girl
Won't you listen to me
Well I tried so hard to give you what you need
And it burned like gasoline

| /  slide up
| \  slide down
| h  hammer-on
| p  pull-off
| ~  vibrato
| +  harmonic
| x  Mute note
===============================================================================
            

comments powered by Disqus
↑ Back to top | Rob Thomas Tabs for Gasoline. Lyrics for acoustic guitar and electric guitar. Tablatures and chords are parodies/interpretations of the original songs. You may use it for private study, scholarship, research or language learning purposes only