>
 >
You Remind Me

You Remind Me Guitar Tabs

Rob Scallon - You Remind Me chords, tabs, tablatures, lyrics

Guitar lessons | Add/correct | Request | Top 50 tabs Artists:  A B C D E F G H I J K L M N O P Q R S T U V W X Y Z 0-9

You Remind Me Guitar Tabs – Rob Scallon

CD, Sheet music, Poster

Do you like You Remind Me? Share with your friends now
Tabs
      H         Q    Q       H.           Q       H         Q    Q     
E||---3--------10----3----|--------------------|--3--------10----3----|
B||---3-------------------|--7------------3----|--3-------------------|
G||*--4---------7----4----|--------------------|--4---------7----4----|
D||*--5-------------------|--7------------5----|--5-------------------|
A||---5-------------------|--------------------|--5-------------------|
E||---3-------------------|--------------------|--3-------------------|


  Q.     E  S S S S E  E   3x  H         Q    Q       H.           Q     
---------------------------||--3--------10----3----|--------------------|
--7------3-----------------||--3-------------------|--7------------3----|
--------------------7--4--*||--4---------7----4----|--------------------|
--7------5--7-9-7-5-------*||--5-------------------|--7------------5----|
---------------------------||--5-------------------|--------------------|
---------------------------||--3-------------------|--------------------|


  H         Q    Q       Q.     E  S S S S E  E       E  E  E  E  E  E   
--3--------10----3----|--------------------------||---------------------|
--3-------------------|--7------3----------------||---------------------|
--4---------7----4----|--------------------7--0--||*-----------------L--|
--5-------------------|--7------5--7-9-7-5-------||*--------------4-----|
--5-------------------|--------------------------||------2--5--2--------|
--3-------------------|--------------------------||---3-----------------|


  E  E  E  E  E  E     E  E  E  E  E  E     E  E  E  E  E  E     
--------------------|--------------------|---------------------||
--------------------|--------------------|---------------------||
--------------------|--------------------|--------------------*||
--------------4-----|--------------5-----|--------------5-----*||
-----2--5--2--------|-----3--7--3--------|-----3--7--3---------||
--3-----------------|--5-----------------|--5------------------||


  E  E  E  E  E  E     E  E  E  E  E  E     E  E  E  E  E  E   
--------------------|--------------------|--------------------|
--0-----------------|--------------------|--------------------|
--0-----------------|--------------------|--------------------|
--0--------L--4-----|--------------4-----|--------------5-----|
-----2--5--2--------|-----2--5--2--------|-----3--7--3--------|
--3-----------------|--3-----------------|--5-----------------|


  E  E  E  E   E  E      E  E  E  E  E  E     E  E  E  E  E  E   
---------------------|---------------------|--------------------|
-----------L---------|---------------------|--------------------|
-----------L--11-----|--12--------------L--|--------------------|
---------------5-----|---------------4-----|--------------4-----|
-----3--7--3---------|------2--5--2--------|-----2--5--2--------|
--5------------------|---3-----------------|--3-----------------|


                                                  Lead                  
  E  E  E  E  E  E      E   E   E   E  Q          E   E   E  E   E  E   
--------------------|-----------------------||-------------------------|
--------------------|--15--17--15--13--0----||---12------12-----12-----|
--------------L-----|------------------0----||*------------------------|
--------------5-----|---4---5---4---2--0----||*------------------4-----|
-----3--7--3--------|-----------------------||--------2---5--2---------|
--5-----------------|-----------------------||----3--------------------|


   E  E  E  E  E  E      E   E   E  E  E  E      E   E   E  E  E  E   
---------------------|-----------------------|-----------------------|
--12--L--L--L--L-----|--12--13--12--L--------|--12--13--12--L--------|
---------------------|-----------------------|-----------------------|
---------------4-----|-----------------5-----|-----------------5-----|
------2--5--2--------|-------3---7--3--------|-------3---7--3--------|
---3-----------------|---5-------------------|---5-------------------|


                 |---3---|                                                 
   E  E   E  E   E   E   E      E  E  E  E  E  E      E   E   E  E  E  E   
----------------10--12--10--|---------------------|-----------------------|
--12-----12-----------------|--12--L--L--L--L-----|--12--13--12--L--------|
----------------------------|---------------------|-----------------------|
-----------------4----------|---------------4-----|-----------------5-----|
------2---5--2--------------|------2--5--2--------|-------3---7--3--------|
---3------------------------|---3-----------------|---5-------------------|


   E   E   E   E  Q          E   E   E  E  E  E     E   E   E  E  E  E   
------------------------||-----------------------|----------------------|
--15--17--15--13--0-----||-----------------------|----------------------|
------------------0----*||*----------------------|----------------------|
---4---5---4---2--0----*||*--5------10--5--------|--5------12--5--------|
------------------------||---7-------------------|--7--10---------7-----|
------------------------||---8--10---------8-----|--8-------------------|


  E   E   E  E  E  E     E   E  E  E  E  E       E  E  E  E  E  E   
----------------------|----------------------||--------------------|
----------------------|----------------------||--------------------|
----------------------|---------------------*||-----------------L--|
--5------10--5--------|--5------9--5--------*||--------------4-----|
--7-------------------|--7-------------------||-----2--5--2--------|
--8--10---------8-----|--8--10--------8------||--3-----------------|


  E  E  E  E  E  E     E  E  E  E  E  E     E  E  E  E  E  E   
--------------------|--------------------|--------------------|
--------------------|--------------------|--------------------|
--------------------|--------------------|--------------------|
--------------4-----|--------------5-----|--------------5-----|
-----2--5--2--------|-----3--7--3--------|-----3--7--3--------|
--3-----------------|--5-----------------|--5-----------------|


  E  E  E  E  E  E     E  E  E  E  E  E     E  E  E  E  E  E   
--------------------|--------------------|--------------------|
--------------------|--------------------|--------------------|
-----------------L--|--------------------|--------------------|
--------------4-----|--------------4-----|--------------5-----|
-----2--5--2--------|-----2--5--2--------|-----3--7--3--------|
--3-----------------|--3-----------------|--5-----------------|


  E  E  E  E  Q       E  E  E  E  E  E     E  E  E  E  E  E   
-------------------|--------------------|--------------------|
-------------------|--0-----------------|--------------------|
-------------------|--0-----------------|--------------------|
--4--5--4--2--0----|--0--------L--4-----|--------------4-----|
-------------------|-----2--5--2--------|-----2--5--2--------|
-------------------|--3-----------------|--3-----------------|


  E  E  E  E  E  E     E  E  E  E   E  E      E  E  E  E  E  E   
--------------------|---------------------|---------------------|
--------------------|-----------L--12-----|--12-----------------|
--------------------|-----------L--11-----|--12--------------L--|
--------------5-----|---------------5-----|---------------4-----|
-----3--7--3--------|-----3--7--3---------|------2--5--2--------|
--5-----------------|--5------------------|---3-----------------|


  E  E  E  E  E  E     E  E  E  E  E  E      E   E   E   E  Q     
--------------------|--------------------|-----------------------|
--------------------|--------------------|--15--17--15--13--0----|
--------------------|--------------L-----|------------------0----|
--------------4-----|--------------5-----|---4---5---4---2--0----|
-----2--5--2--------|-----3--7--3--------|-----------------------|
--3-----------------|--5-----------------|-----------------------|


     Lead                                                                
     E   E   E  E   E  E      E  E  E  E  E  E      E   E   E  E  E  E   
|-------------------------|---------------------|-----------------------|
|---12------12-----12-----|--12--L--L--L--L-----|--12--13--12--L--------|
|*------------------------|---------------------|-----------------------|
|*------------------4-----|---------------4-----|-----------------5-----|
|--------2---5--2---------|------2--5--2--------|-------3---7--3--------|
|----3--------------------|---3-----------------|---5-------------------|


                                         |---3---|                         
   E   E   E  E  E  E      E  E   E  E   E   E   E      E  E  E  E  E  E   
-----------------------|----------------10--12--10--|---------------------|
--12--13--12--L--------|--12-----12-----------------|--12--L--L--L--L-----|
-----------------------|----------------------------|---------------------|
-----------------5-----|-----------------4----------|---------------4-----|
-------3---7--3--------|------2---5--2--------------|------2--5--2--------|
---5-------------------|---3------------------------|---3-----------------|


   E   E   E  E  E  E      E   E   E   E  Q          E   E   E  E  E  E   
-----------------------|------------------------||-----------------------|
--12--13--12--L--------|--15--17--15--13--0-----||-----------------------|
-----------------------|------------------0----*||*----------------------|
-----------------5-----|---4---5---4---2--0----*||*--5------10--5--------|
-------3---7--3--------|------------------------||---7-------------------|
---5-------------------|------------------------||---8--10---------8-----|


  E   E   E  E  E  E     E   E   E  E  E  E     E   E  E  E  E  E     
----------------------|----------------------|----------------------||
----------------------|----------------------|----------------------||
----------------------|----------------------|---------------------*||
--5------12--5--------|--5------10--5--------|--5------9--5--------*||
--7--10---------7-----|--7-------------------|--7-------------------||
--8-------------------|--8--10---------8-----|--8--10--------8------||


  E   E   E  E  E  E     E   E   E  E  E  E     E   E   E  E  E  E   
----------------------|----------------------|----------------------|
----------------------|----------------------|----------------------|
----------------------|----------------------|----------------------|
--4------10--4--------|--4------12--4--------|--4------10--4--------|
--5-------------------|--5--10---------5-----|--5-------------------|
--7--10---------7-----|--7-------------------|--7--10---------7-----|


  E   E  E  E  E  E     E   E   E  E  E  E     E   E   E  E  E  E   
---------------------|----------------------|----------------------|
---------------------|----------------------|----------------------|
---------------------|----------------------|----------------------|
--4------9--4--------|--2------10--2--------|--2------12--2--------|
--5------------------|--3-------------------|--3--10---------3-----|
--7--10--------7-----|--5--10---------5-----|--5-------------------|


                                                NH             
  E   E   E  E  E  E     E   E  E  E  Q         H.             
----------------------|--------------------|-----------------||
----------------------|--------------------|--<>0------------||
----------------------|--------------------|--<>0------------||
--2------10--2--------|--2------9--2-------|--<>0------------||
--3-------------------|--3-----------------|----2------------||
--5--10---------5-----|--5--10--------0----|----3------------||




Duration Legend
---------------
W - whole
H - half
Q - quarter
E - 8th
S - 16th
T - 32nd
X - 64th
. - note dotted
|-n-|  - n-tuplets


Tablature Legend
----------------
L - tied note
x - dead note
g - grace note
(n) - ghost note
> - accentuded note
NH - natural harmonic
AH - artificial harmonic
TH - tapped harmonic
SH - semi harmonic
PH - pitch harmonic
h - hammer on
p - pull off
b - bend
br - bendRelease
pb - preBend
pbr - preBendRelease
brb - bendReleaseBend
\n/ - tremolo bar dip
\n - tremolo bar dive
-/n - tremolo bar Release up
/n\ - tremolo bar inverted dip
/n - tremolo bar return
-\n - tremolo bar Release down
S - shift slide
s - legato slide
/ -  slide into from below or out of upwards
\ -  slide into from above or out of downwards
~ - vibrato
W - wide vibrato
tr - trill
TP - tremolo picking
T - tapping
S - slap
P - pop
< - fade in
^ - brush up
v - brush down





Comments


Popular Rob Scallon tabs & chords
Le Gentil Bass Tabs
Procrastination Bassin Bass Tabs
Heart Beats Tabs
Iowan Bird Tabs
Letters From Boston Tabs
Skipping Stones Tabs
Somewhere To Run To Tabs
Summer Tabs
To Zanarkand Tabs
Trouz Tabs


Song lyrics



↑ Back to top | Tablatures and chords are parodies/interpretations of the original songs. You may use it for private study, scholarship, research or language learning purposes only
© 2014 AZChords.com Contact us | Privacy policy | DMCA | Add/correct tabs | Request tabs | Top 50 tabs