>
 >
Union Il

Union Il Guitar Tabs

Rob Scallon - Union Il chords, tabs, tablatures, lyrics

Guitar lessons | Add/correct | Request | Top 50 tabs Artists:  A B C D E F G H I J K L M N O P Q R S T U V W X Y Z 0-9

Union Il Guitar Tabs – Rob Scallon

CD, Sheet music, Poster

Do you like Union Il? Share with your friends now
Tabs
      W                   W                    H         H         
E||--14----------------|--7----------------|--14--------10--------|
B||--10----------------|--8----------------|--10--------12--------|
G||---0----------------|-------------------|---0------------------|
D||---0----------------|--0----------------|---0------------------|
A||--------------------|-------------------|----------------------|
E||--------------------|-------------------|----------------------|


                                  NH    NH                               
   W                    Q.        E     E  E  E  E     W                 
--10----------------|--14---------------------------|--7----------------|
---7----------------|--10---------------------------|--8----------------|
--------------------|---0------------<>12--L--L--L--|-------------------|
---0----------------|---0------<>12-----------------|--0----------------|
--------------------|-------------------------------|-------------------|
--------------------|-------------------------------|-------------------|


  H.           E  E     E  E  E  E  E  E  E  E   
--8------------7--L--|--7-----5-----3-----2-----|
--5------------------|--8--0--7--0--5--0--3--0--|
---------------------|--------------------------|
--0------------------|--------------------------|
---------------------|--------------------------|
---------------------|--------------------------|


   S S S S  S S E  Q    E   E     S S S S S S E  H         
---------7-10-7-7--7----5s--2--|--------2-5-2-------------|
-------8--------0--8-----------|------3-------3--0--------|
-----9-------------0-----------|----4---------0--0--------|
--10---------------------------|--5-----------------------|
-------------------------------|--------------------------|
-------------------------------|--------------------------|


   S S S S  S S E  Q    E   E     S S S S S S E  Q    E  E   
---------7-10-7-7--7----5s--2--|--------2-5-2---------------|
-------8--------0--8-----------|------3-------3--0-------8--|
-----9-------------0-----------|----4---------0--0----0-----|
--10---------------------------|--5-------------------------|
-------------------------------|----------------------------|
-------------------------------|----------------------------|


   S S S S  S S E  Q    E   E     S S S S S S E  Q    E  E   
---------7-10-7-7--7----5s--2--|--------2-5-2------------7--|
-------8--------0--8-----------|------3-------3--0-------8--|
-----9-------------0-----------|----4---------0--0----0-----|
--10---------------------------|--5-------------------------|
-------------------------------|----------------------------|
-------------------------------|----------------------------|


   S S S S  S S E  Q    E   E     S S S S S S E  Q    E  E   
---------7-10-7-7--7----5s--2--|--------2-5-2------------7--|
-------8--------0--8-----------|------3-------3--0-------8--|
-----9-------------0-----------|----4---------0--0----0-----|
--10---------------------------|--5-------------------------|
-------------------------------|----------------------------|
-------------------------------|----------------------------|


  S S S S S S S S S S S S  E  E     S S S S S S S S S S S S  E  E   
----7-------7-------7------------|----5-------5-------5------------|
------8-------8-------8----------|------7-------7-------7----------|
--------0-------0-------0--------|--------0-------0-------0--------|
----------0----------------------|----------0----------------------|
---------------------------------|---------------------------------|
--8---------------8-------17--8--|--7---------------7-------15--7--|


  S S S S S S S S S S S S  E  E     S S S S S S S S S S S S Q     
----3-------3-------3------------|----2-------2-------2-----2----|
------5-------5-------5----------|------3-------3-------3---0----|
--------0-------0-------0--------|--------0-------0-------0-0----|
----------0----------------------|----------0---------------0----|
---------------------------------|-------------------------------|
--5---------------5-------14--5--|--3---------------3-------3----|


  S S S S S S S S S S S S  E  E     S S S S S S S S S S S S  E  E   
----7-------7-------7------------|----5-------5-------5------------|
------8-------8-------8----------|------7-------7-------7----------|
--------0-------0-------0--------|--------0-------0-------0--------|
----------0----------------------|----------0----------------------|
---------------------------------|---------------------------------|
--8---------------8-------17--8--|--7---------------7-------15--7--|


  S S S S S S S S S S S S  E  E     S S S S S S S S S S S S Q     
----3-------3-------3------------|----2-------2-------2-----2----|
------5-------5-------5----------|------3-------3-------3---0----|
--------0-------0-------0--------|--------0-------0-------0-0----|
----------0----------------------|----------0---------------0----|
---------------------------------|-------------------------------|
--5---------------5-------14--5--|--3---------------3-------3----|


  S S S S S S S S S S S S Q        S S S S  S S E  Q    E   E   
----2-------2-------2-----2----|---------7-10-7-7--7----5s--2--|
------0-------0-------0---0----|-------8--------0--8-----------|
--------0-------0-------0-0----|-----9-------------0-----------|
----------0---------------0----|--10---------------------------|
-------------------------------|-------------------------------|
--3---------------3-------3----|-------------------------------|


  S S S S S S E  Q    E  E      S S S S  S S E  Q    E   E   
--------2-5-2------------7--|---------7-10-7-7--7----5s--7--|
------3-------3--0-------8--|-------8--------0--8-----------|
----4---------0--0----0-----|-----9-------------0-----------|
--5-------------------------|--10---------------------------|
----------------------------|-------------------------------|
----------------------------|-------------------------------|


   |-3-|      |-3-|     |-3-|     |-3-|                                      
   S S S S S  S S S S S S S S S S S S S S S     S S S S  S S E  Q    E   E   
---------7----------7---------2-------2-3---|---------7-10-7-7--7----5s--2--|
-------8----------8---------3-------3-------|-------8--------0--8-----------|
-----9----------9---------4-------4---------|-----9-------------0-----------|
--10---------10---------5-------------------|--10---------------------------|
--------------------------------------------|-------------------------------|
--------------------------------------------|-------------------------------|


  S S S S S S E  Q    E  E      S S S S  S S E  Q    E   E   
--------2-5-2------------7--|---------7-10-7-7--7----5s--2--|
------3-------3--0-------8--|-------8--------0--8-----------|
----4---------0--0----0-----|-----9-------------0-----------|
--5-------------------------|--10---------------------------|
----------------------------|-------------------------------|
----------------------------|-------------------------------|


  S S S S S S E  Q    E  E     S S S S S S S S S S S S  E  E   
--------2-5-2------------7--|----7-------7-------7------------|
------3-------3--0-------8--|------8-------8-------8----------|
----4---------0--0----0-----|--------0-------0-------0--------|
--5-------------------------|----------0----------------------|
----------------------------|---------------------------------|
----------------------------|--8---------------8-------17--8--|


  S S S S S S S S S S S S  E  E     S S S S S S S S S S S S  E  E   
----5-------5-------5------------|----3-------3-------3------------|
------7-------7-------7----------|------5-------5-------5----------|
--------0-------0-------0--------|--------0-------0-------0--------|
----------0----------------------|----------0----------------------|
---------------------------------|---------------------------------|
--7---------------7-------15--7--|--5---------------5-------14--5--|


  S S S S S S S S S S S S Q       S S S S S S S S S S S S  E  E   
----2-------2-------2-----2----|----7-------7-------7------------|
------3-------3-------3---0----|------8-------8-------8----------|
--------0-------0-------0-0----|--------0-------0-------0--------|
----------0---------------0----|----------0----------------------|
-------------------------------|---------------------------------|
--3---------------3-------3----|--8---------------8-------17--8--|


  S S S S S S S S S S S S  E  E     S S S S S S S S S S S S  E  E   
----5-------5-------5------------|----3-------3-------3------------|
------7-------7-------7----------|------5-------5-------5----------|
--------0-------0-------0--------|--------0-------0-------0--------|
----------0----------------------|----------0----------------------|
---------------------------------|---------------------------------|
--7---------------7-------15--7--|--5---------------5-------14--5--|


  S S S S S S S S S S S S Q       S S S S S S S S S S S S Q     
----2-------2-------2-----2----|----2-------2-------2-----2----|
------3-------3-------3---0----|------0-------0-------0---0----|
--------0-------0-------0-0----|--------0-------0-------0-0----|
----------0---------------0----|----------0---------------0----|
-------------------------------|-------------------------------|
--3---------------3-------3----|--3---------------3-------3----|


  S S S S S S S S S S S S Q       S S S S S S S S S S S S Q     
----2-------2-------2-----2----|----2-------2-------2-----2----|
------3-------3-------3---0----|------0-------0-------0---0----|
--------0-------0-------0-0----|--------0-------0-------0-0----|
----------0---------------0----|----------0---------------0----|
-------------------------------|-------------------------------|
--3---------------3-------3----|--3---------------3-------3----|


   S S S S  S S E  Q    E   E     S S S S S S E  E  E  E  E   
---------7-10-7-7--7----5s--2--|--------2-5-2-2--2-----3-----|
-------8--------0--8----7------|------3-------0--3--0--5--0--|
-----9-------------0-----------|----4------------0-----------|
--10---------------------------|--5--------------------------|
-------------------------------|-----------------------------|
-------------------------------|-----------------------------|


   S S S S  S S E  Q    E   E     S S S S S S E  E  E  E  E   
---------7-10-7-7--7----5s--2--|--------2-5-2-2--2-----3-----|
-------8--------0--8----7------|------3-------0--3--0--5--0--|
-----9-------------0-----------|----4------------0-----------|
--10---------------------------|--5--------------------------|
-------------------------------|-----------------------------|
-------------------------------|-----------------------------|


   S S S S  S S E  Q     E  E     S S S S S S E  E  E  E  E   
---------7-10-7-7--7----10-----|--------2-5-2-2--2-----7-----|
-------8--------0--8-----7--0--|------3-------0--3--0--8--0--|
-----9-------------0-----------|----4------------0-----------|
--10---------------------------|--5--------------------------|
-------------------------------|-----------------------------|
-------------------------------|-----------------------------|


   S S S S  S S E  Q     E  E     S S S S S S E  E  E  E  E   
---------7-10-7-7--7----10-----|--------2-5-2-2--2-----------|
-------8--------0--8-----7--0--|------3-------0--3--0--3--0--|
-----9-------------0-----------|----4------------4--0--4--0--|
--10---------------------------|--5--------------5--0--5--0--|
-------------------------------|-----------------------------|
-------------------------------|-----------------------------|


  S S S S S S E  E  E  E  E     S S S S S S E  E  E  E  E   
--------2-5-2-2--2-----------|--------2-5-2-2--2-----------|
------3-------0--3--0--3--0--|------3-------0--3--0--3--0--|
----4------------4--0--4--0--|----4------------4--0--4--0--|
--5--------------5--0--5--0--|--5--------------5--0--5--0--|
-----------------------------|-----------------------------|
-----------------------------|-----------------------------|


  S S S S S S E  Q    Q        H            W                 
--------2-5-2-2--2----------|-----------|--14----------------|
------3-------0--3----0h----|--0--------|--10----------------|
----4------------4----0h----|--0--------|---0----------------|
--5--------------5----0h----|--0--------|---0----------------|
----------------------------|-----------|--------------------|
----------------------------|-----------|--------------------|


  W                    H         H            W                 
--7----------------|--14--------10--------|--10----------------|
--8----------------|--10--------12--------|---7----------------|
-------------------|---0------------------|--------------------|
--0----------------|---0------------------|---0----------------|
-------------------|----------------------|--------------------|
-------------------|----------------------|--------------------|


             NH    NH                                                     
   Q.        E     E  E  E  E     W                   H.           E  E   
--14---------------------------|--7----------------|--8------------7--L--|
--10---------------------------|--8----------------|--5------------------|
---0------------<>12--L--L--L--|-------------------|---------------------|
---0------<>12-----------------|--0----------------|--0------------------|
-------------------------------|-------------------|---------------------|
-------------------------------|-------------------|---------------------|


  E  E  E  E  E  E  E  E     W                    Q    Q     Q    Q     
--7-----5-----3-----2-----|--L----------------|--12---------10---------|
--8--0--7--0--5--0--3--0--|--L----------------|---8----0-----7----0----|
--------------------------|-------------------|------------------------|
--------------------------|-------------------|------------------------|
--------------------------|-------------------|------------------------|
--------------------------|-------------------|------------------------|


  W                    Q    Q    Q    Q       W                 
--8----------------|--10---------8---------|--7----------------|
--5----------------|---8----0----7----0----|--5----------------|
-------------------|-----------------------|-------------------|
-------------------|-----------------------|-------------------|
-------------------|-----------------------|-------------------|
-------------------|-----------------------|-------------------|


  Q    Q    Q    Q       H        H            W                  
--8---------7---------|--5-----------------|--15----------------||
--8----0----7----0----|--5--------0--------|---0----------------||
----------------------|--------------------|---0----------------||
----------------------|--------------------|---0----------------||
----------------------|--------------------|--14----------------||
----------------------|--------------------|--15----------------||




Duration Legend
---------------
W - whole
H - half
Q - quarter
E - 8th
S - 16th
T - 32nd
X - 64th
. - note dotted
|-n-|  - n-tuplets


Tablature Legend
----------------
L - tied note
x - dead note
g - grace note
(n) - ghost note
> - accentuded note
NH - natural harmonic
AH - artificial harmonic
TH - tapped harmonic
SH - semi harmonic
PH - pitch harmonic
h - hammer on
p - pull off
b - bend
br - bendRelease
pb - preBend
pbr - preBendRelease
brb - bendReleaseBend
\n/ - tremolo bar dip
\n - tremolo bar dive
-/n - tremolo bar Release up
/n\ - tremolo bar inverted dip
/n - tremolo bar return
-\n - tremolo bar Release down
S - shift slide
s - legato slide
/ -  slide into from below or out of upwards
\ -  slide into from above or out of downwards
~ - vibrato
W - wide vibrato
tr - trill
TP - tremolo picking
T - tapping
S - slap
P - pop
< - fade in
^ - brush up
v - brush down





Comments


Popular Rob Scallon tabs & chords
Anchor Tabs
Disposable Tabs
Faithful Tabs
Heard Again Tabs
Heart Beats Tabs
Metal Mad Libs 2 Tabs
Musical Mad Libs 1 Tabs
To Zanarkand Tabs
Trouz Tabs
You Remind Me Tabs


Song lyrics



↑ Back to top | Tablatures and chords are parodies/interpretations of the original songs. You may use it for private study, scholarship, research or language learning purposes only
© 2014 AZChords.com Contact us | Privacy policy | DMCA | Add/correct tabs | Request tabs | Top 50 tabs