>
 >
Trouz

Trouz Guitar Tabs

Rob Scallon - Trouz chords, tabs, tablatures, lyrics

Guitar lessons | Add/correct | Request | Top 50 tabs Artists:  A B C D E F G H I J K L M N O P Q R S T U V W X Y Z 0-9

Trouz Guitar Tabs – Rob Scallon

CD, Sheet music, Poster

Do you like Trouz? Share with your friends now
Tabs
     E  S S E  E  S S E  E  E     E  S S E  E  S S S E  E  S  
E||---------3------------------|---------3-------------------|
B||----------------------------|-----------------------------|
G||----------------------------|-----------------------------|
D||----------------------------|-----------------------------|
A||----------------------------|-----------------------------|
E||--3--x-x----3--2------------|--3--x-x----3--2---2---------|


                   |-3-|                                         
  E  S S E  E  S S S S S S S S S    E  S S E  E  S S E   E.   S  
---------3---------------x-------|---------3--------------------|
---------------------------------|------------------------------|
---------------------------------|------------------------------|
---------------------------------|------------------------------|
---------------------------------|------------------------------|
--3--x-x----3--2---x-x-x---x-x-x-|--3--x-x----3--2------12S-----|


  E  S S E  E  S S E  E  E     E  S S E  E  S S S S S S S S  
---------3------------------|---------3---------------------|
----------------------------|-------------------------------|
----------------------------|-------------------------------|
----------------------------|-------------------------------|
----------------------------|-------------------------------|
--3--x-x----3--2------------|--3--x-x----3--2---2-----2-----|


                   |-3-|                                         
  E  S S E  E  S S S S S S S S S    E  S S E  E  S S E   E.   S  
---------3---------------x-------|---------3--------------------|
---------------------------------|------------------------------|
---------------------------------|------------------------------|
---------------------------------|------------------------------|
---------------------------------|------------------------------|
--3--x-x----3--2---x-x-x---x-x-x-|--3--x-x----3--2------12S-----|


  S S S S S S S S S S S S S S S S    S S S S S S S S S S S S S S S S  
----------------------------------|----------------------------------|
----------------------------------|----------------------------------|
--------x-------x---x-------x---x-|--------x---x-------x---x---------|
----------------------------------|----------------------------------|
----------------------5-7---------|--4-----------4-------------------|
--0---x---5-7-x---x-------x---x---|------x---x-------x---x---3-5-x-0-|


  S S S S S S S S S S S S S S S S    S S S S S S S S S S S S S S S S  
----------------------------------|----------------------------------|
----------------------------------|----------------------------------|
--------x-------x---x-------x---x-|----------------------------------|
----------------------------------|----------------------------------|
----------------------5-7---------|--4---x-4---x-4-------------------|
--0---x---5-7-x---x-------x---x---|------------------5---4---3---2---|


  S S S S S S S S S S S S S S S S    S S S S S S S S S S S S S S S S  
----------------------------------|----------------------------------|
----------------------------------|----------------------------------|
--------x-------x---x-------x---x-|--------x---x-------x---x-------x-|
----------------------------------|----------------------------------|
----------------------5-7---------|--4-----------4-------------------|
--0---x---5-7-x---x-------x---x---|------x---x-------x---x---3-5-x---|


  S S S S S S S S S S S S S S S S    S S S S S S S S S S S S E.    S  
----------------------------------|----------------------------------|
----------------------------------|----------------------------------|
--------x-------x---x-------x---x-|----------------------------------|
----------------------------------|----------------------------------|
----------------------5-7---------|--4---x-4---x-4-------------------|
--0---x---5-7-x---x-------x---x---|------------------5---4---3S---12-|


            |-3-|         |-3-|                                            
    S S S S S S S S S S S S S S S S S S    S S S S S S S S S S S S S  E.   
|---------------------------------------|---------------------------------|
|---------------------------------------|--------------------------0--L---|
|*--------x---------x---x---------x---x-|--------x---x-------x---x-0--L---|
|*--------------------------------------|--------------------------0--L---|
|-------------------------0-5-7---------|--4-----------4-----------2S-4---|
|---0---x---0-5-7-x---x---------x---x---|------x---x-------x---x---3S-5---|


          |-3-|         |-3-|                                               
  S S S S S S S S S S S S S S S S S S    S S S S S S S S S S S S S S S S    
--------------------------------------|-----------------------------------||
--------------------------------------|-----------------------------------||
--------x---------x---x---------x---x-|----------------------------------*||
--------------------------------------|----------------------------------*||
------------------------0-5-7---------|--4---x-4---x-4--------------------||
--0---x---0-5-7-x---x---------x---x---|------------------5---4---3---2----||


  E  S S S S E   S  S S S  E   S S    E  S S S S E   S  S S S  E   S S  
--0--0-0---0-0---------------------|--0--0-0---0-0---------------------|
--5--5-5---5-5-----12-5------------|--5--5-5---5-5-----12-5------------|
--7--7-7---7-7------------11--13---|--7--7-7---7-7------------11--13---|
--6--6-6---6-6--12------6----------|--6--6-6---6-6--12------6----------|
--7--7-7---7-7---------------------|--7--7-7---7-7---------------------|
-----------------------------------|-----------------------------------|


  E  S S S S E   S  S S S E   S S    E  S S S S E   S  S S S E   S S  
--0--0-0---0-0--------------------|--0--0-0---0-0--------------------|
--3--3-3---3-3-----10-3-----------|--3--3-3---3-3-----10-3-----------|
--5--5-5---5-5------------9--11---|--5--5-5---5-5------------9--11---|
--4--4-4---4-4--10------4---------|--4--4-4---4-4--10------4---------|
--5--5-5---5-5--------------------|--5--5-5---5-5--------------------|
----------------------------------|----------------------------------|


  E  S S S S E   S  S S S  E   S S    E  S S S S E   S  S S S  E   S S  
--0--0-0---0-0---------------------|--0--0-0---0-0---------------------|
--5--5-5---5-5-----12-5------------|--5--5-5---5-5-----12-5------------|
--7--7-7---7-7------------11--13---|--7--7-7---7-7------------11--13---|
--6--6-6---6-6--12------6----------|--6--6-6---6-6--12------6----------|
--7--7-7---7-7---------------------|--7--7-7---7-7---------------------|
-----------------------------------|-----------------------------------|


  E  S S S S E   S  S S S E   S S    E  S S S S E  S S S E  S E   
--0--0-0---0-0--------------------|--0--0-0---0-0--0---0----0----|
--3--3-3---3-3-----10-3-----------|--3--3-3---3-3--3---3----4----|
--5--5-5---5-5------------9--11---|--5--5-5---5-5--5---5----6----|
--4--4-4---4-4--10------4---------|--4--4-4---4-4--4---4----5----|
--5--5-5---5-5--------------------|--5--5-5---5-5--5---5----6----|
----------------------------------|------------------------------|


  E  S S S S E   S  S S S  S  S S S    E  S S S S E   S  S S S  S  S S S  
--0--0-0---0-0---------------15-0---|--0--0-0---0-0---------------15-0---|
--5--5-5---5-5-----12-5-------------|--5--5-5---5-5-----12-5-------------|
--7--7-7---7-7------------12------7-|--7--7-7---7-7------------12------7-|
--6--6-6---6-6--12------6-----------|--6--6-6---6-6--12------6-----------|
--7--7-7---7-7----------------------|--7--7-7---7-7----------------------|
------------------------------------|------------------------------------|


  E  S S S S E   S  S S S E   S S    E  S S S S E  S S S E  S E   
--0--0-0---0-0--------------------|--0--0-0---0-0--0---0----0----|
--3--3-3---3-3-----10-3-----------|--3--3-3---3-3--3---3----4----|
--5--5-5---5-5------------9--11---|--5--5-5---5-5--5---5----6----|
--4--4-4---4-4--10------4---------|--4--4-4---4-4--4---4----5----|
--5--5-5---5-5--------------------|--5--5-5---5-5--5---5----6----|
----------------------------------|------------------------------|


  E  S S S S E   S  S S S  S  S S S    E  S S S S E  S S S S S S S S  
--0--0-0---0-0---------------15-0---|--0--0-0---0-0------------------|
--5--5-5---5-5-----12-5-------------|--5--5-5---5-5--5-5-4-4-3-3-2-2-|
--7--7-7---7-7------------12------7-|--7--7-7---7-7--7-7-6-6-5-5-4-4-|
--6--6-6---6-6--12------6-----------|--6--6-6---6-6--6-6-5-5-4-4-3-3-|
--7--7-7---7-7----------------------|--7--7-7---7-7--7-7-6-6-5-5-4-4-|
------------------------------------|--------------------------------|


  E  S S S S E   S  S S S E   S S    E  S S S S E  S S S E  S E   
--0--0-0---0-0---------------12---|--0--0-0---0-0--0---0----0----|
--3--3-3---3-3-----10-3-----------|--3--3-3---3-3--3---3----4----|
--5--5-5---5-5------------9-------|--5--5-5---5-5--5---5----6----|
--4--4-4---4-4--10------4---------|--4--4-4---4-4--4---4----5----|
--5--5-5---5-5--------------------|--5--5-5---5-5--5---5----6----|
----------------------------------|------------------------------|


  E  S S E  E  S S E  E  E     E  S S E  E  S S S S S S S S  
---------3------------------|---------3---------------------|
----------------------------|-------------------------------|
----------------------------|-------------------------------|
----------------------------|-------------------------------|
----------------------------|-------------------------------|
--3--x-x----3--2------------|--3--x-x----3--2---2-----2-----|


                   |-3-|                                         
  E  S S E  E  S S S S S S S S S    E  S S E  E  S S E   E.   S  
---------3---------------x-------|---------3--------------------|
---------------------------------|------------------------------|
---------------------------------|------------------------------|
---------------------------------|------------------------------|
---------------------------------|------------------------------|
--3--x-x----3--2---x-x-x---x-x-x-|--3--x-x----3--2------12S---3-|


  E  S S E  E  S S S S E  S S    E  S S E  E  E  E  E  E   
---------3--------------------|---------3--------6-----5--|
------------------------------|---------------------------|
-----------------------x------|---------------------------|
-----------------------x------|---------------------------|
-------------------x-x----x-x-|---------------------------|
--3--x-x----3--2---x-x----x-x-|--3--x-x----0--3-----2-----|


                                               |-3-|          
  E  S S E  E  S S E  Q       E  S S E  E  S S S S S S S S S  
---------3------------0----|---------3---------------x-------|
-------------------x--0----|---------------------------------|
-------------------x--0----|---------------------------------|
-------------------x--0----|---------------------------------|
---------------------------|---------------------------------|
--3--x-x----3--2-----------|--3--x-x----3--2---x-x-x---x-0---|


  S S S S S S S S S S S S S S S S    S S S S S S S S S S S S S S S S  
----------------------------------|----------------------------------|
----------------------------------|----------------------------------|
--------x-------x---x-------x---x-|--------x---x-------x---x-------x-|
----------------------------------|----------------------------------|
----------------------5-7---------|--4-----------4-------------------|
--0---x---5-7-x---x-------x---x---|------x---x-------x---x---3-5-x---|


  S S S S S S S S S S S S S S S S    S S S S S S S S S S S S S S S S  
----------------------------------|----------------------------------|
----------------------------------|----------------------------------|
--------x-------x---x-------x---x-|----------------------------------|
----------------------------------|----------------------------------|
----------------------5-7---------|--4---x-4---x-4-------------------|
--0---x---5-7-x---x-------x---x---|------------------5---4---3---2---|


  S S S S S S S S S S S S S S S S    S S S S S S S S S S S S S S S S  
----------------------------------|----------------------------------|
----------------------------------|----------------------------------|
--------x-------x---x-------x---x-|--------x---x-------x---x-------x-|
----------------------------------|----------------------------------|
----------------------5-7---------|--4-----------4-------------------|
--0---x---5-7-x---x-------x---x---|------x---x-------x---x---3-5-x---|


  S S S S S S S S S S S S S S S S    S S S S S S S S S S S S E.    S  
----------------------------------|----------------------------------|
----------------------------------|----------------------------------|
--------x-------x---x-------x---x-|----------------------------------|
----------------------------------|----------------------------------|
----------------------5-7---------|--4---x-4---x-4-------------------|
--0---x---5-7-x---x-------x---x---|------------------5---4---3S---12-|


          |-3-|         |-3-|                                            
  S S S S S S S S S S S S S S S S S S    S S S S S S S S S S S S S  E.   
--------------------------------------|---------------------------------|
--------------------------------------|--------------------------0--L---|
--------x---------x---x---------x---x-|--------x---x-------x---x-0--L---|
--------------------------------------|--------------------------0--L---|
------------------------0-5-7---------|--4-----------4-----------2S-4---|
--0---x---0-5-7-x---x---------x---x---|------x---x-------x---x---3S-5---|


          |-3-|         |-3-|                                             
  S S S S S S S S S S S S S S S S S S    S S S S S S S S S S S S S S S S  
--------------------------------------|----------------------------------|
--------------------------------------|----------------------------------|
--------x---------x---x---------x---x-|----------------------------------|
--------------------------------------|----------------------------------|
------------------------0-5-7---------|--4---x-4---x-4-------------------|
--0---x---0-5-7-x---x---------x---x---|------------------5---4---3---2---|


          |-3-|         |-3-|                                             
  S S S S S S S S S S S S S S S S S S    S S S S S S S S S S S S E.    S  
--------------------------------------|----------------------------------|
--------------------------------------|----------------------------------|
--------x---------x---x---------x---x-|----------------------------------|
--------------------------------------|----------------------------------|
------------------------0-5-7---------|--4---x-4---x-4---x-4---x-4S---16-|
--0---x---0-5-7-x---x---------x---x---|----------------------------------|


          |-3-|         |-3-|                                             
  S S S S S S S S S S S S S S S S S S    S S S S S S S S S S S S S S S S  
--------------------------------------|----------------------------------|
--------------------------------------|----------------------------------|
--------x---------x---x---------x---x-|----------------------------------|
--------------------------------------|----------------------------------|
------------------------0-5-7---------|--4---x-4---x-4-------------------|
--0---x---0-5-7-x---x---------x---x---|------------------5---4---3---2---|


  S S H.           E    
----------------------||
----------------------||
----------------------||
----------------------||
--x-------------------||
--x-------------------||




Duration Legend
---------------
W - whole
H - half
Q - quarter
E - 8th
S - 16th
T - 32nd
X - 64th
. - note dotted
|-n-|  - n-tuplets


Tablature Legend
----------------
L - tied note
x - dead note
g - grace note
(n) - ghost note
> - accentuded note
NH - natural harmonic
AH - artificial harmonic
TH - tapped harmonic
SH - semi harmonic
PH - pitch harmonic
h - hammer on
p - pull off
b - bend
br - bendRelease
pb - preBend
pbr - preBendRelease
brb - bendReleaseBend
\n/ - tremolo bar dip
\n - tremolo bar dive
-/n - tremolo bar Release up
/n\ - tremolo bar inverted dip
/n - tremolo bar return
-\n - tremolo bar Release down
S - shift slide
s - legato slide
/ -  slide into from below or out of upwards
\ -  slide into from above or out of downwards
~ - vibrato
W - wide vibrato
tr - trill
TP - tremolo picking
T - tapping
S - slap
P - pop
< - fade in
^ - brush up
v - brush down





Comments


Popular Rob Scallon tabs & chords
Le Gentil Bass Tabs
Algonquin Rd Tabs
Amys Song Tabs
April Is The Cruelest Month Tabs
For That Second Tabs
I Should Spend More Time With You Tabs
Iphone Beard Metal Tabs
Poetry Taken Literally Tabs
To Zanarkand Tabs
Union Il Tabs


Song lyrics



↑ Back to top | Tablatures and chords are parodies/interpretations of the original songs. You may use it for private study, scholarship, research or language learning purposes only
© 2014 AZChords.com Contact us | Privacy policy | DMCA | Add/correct tabs | Request tabs | Top 50 tabs