>
 >
To Zanarkand

To Zanarkand Guitar Tabs

Rob Scallon - To Zanarkand chords, tabs, tablatures, lyrics

Guitar lessons | Add/correct | Request | Top 50 tabs Artists:  A B C D E F G H I J K L M N O P Q R S T U V W X Y Z 0-9

To Zanarkand Guitar Tabs – Rob Scallon

CD, Sheet music, Poster

Do you like To Zanarkand? Share with your friends now
Tabs
 To Zanarkand (cover)                               
  Rob Scallon




     E  E  E  E  E  E     H.              E  E  E  E  E  E     H.          
E||--0-----------0--2--|--3------------|-----------------0--|--2-----------|
B||-----------0--------|---------------|--3-----------3-----|--------------|
G||--------------0-----|---------------|-----------2--------|--------------|
D||--------2--4--------|---------------|-----0--4-----------|--------------|
A||-----2--------------|--3------------|--5-----------3-----|--2-----------|
E||--0-----------------|---------------|--------------------|--------------|


  E  E  E  E  E  S  S    Q    Q    Q       E  E  E  E  E  E     H.         
----------------------|-----------------|--------------------|-------------|
--0-----0-----0-------|--0---------3----|--------------------|--0----------|
----------------------|--0----2---------|--------------------|-------------|
--------0-----2--4s-5-|-----------------|--4--------------4--|-------------|
--3--------3----------|-----------------|--2-----2--4--5-----|-------------|
-----3----------------|-----------------|-----2--------------|-------------|


  E  E  E  E  E  S  S    Q    Q    Q       E  E  E   E   E  E   
--0-----0-----0-------|--0---------3----|----------------------|
--------0-----1--3s-5-|--5----3---------|--1-------------------|
-----2-----2----------|-----------------|------------0---2--5--|
--2-------------------|-----------------|--------3--(0)--------|
----------------------|-----------------|-----3-----(0)--------|
----------------------|-----------------|--1--------(0)--------|


  E  E  E  E  E  E     E  E  E  E  E  E     E  E  E  E  E  E   
--------------5--8--|--0-----------0--2--|--3-----2-----0-----|
--6-----6--8--------|-----------0--------|--------------------|
-----5--------------|--------------0-----|-----0--------------|
--------------------|--------2--4--------|-----------4--2-----|
--------------------|-----2--------------|--3--------------3--|
--------------------|--0-----------------|--------------------|


  E  E  E  E  E  E     E  E  E  E  E  E     E  E  E  E  E  E   
-----------0--------|--------------------|--0-----------0--2--|
--3-----3-----3-----|--0-----------0--3--|-----------0--------|
-----2--------------|--------0--2--------|--------------0-----|
--0--------2--4-----|-----0--------------|--------2--4--------|
-----------------3--|--------------------|-----2--------------|
--------------------|--3-----------------|--0-----------------|


  E  E  E  E  E  E     E  E  E  S  S E  E     E  E  E  E  E  E   
--3-----2-----3-----|--5--------3s-5-5-----|--7-----------------|
-----------------0--|--------3--5s-7-7-----|--------------0--3--|
-----0--------------|-----2-------------5--|--------0--2--------|
-----------4--2-----|--0-------------------|-----0--------------|
--3-----------------|----------------------|--------------------|
--------------------|----------------------|--3-----------------|


  E  E  E  E  E  E     E  E  E  E  E  E     E  E  E  E  E  E   
--0-----------0--2--|--3-----2-----0-----|-----------0--------|
-----------0--------|--------------------|--3-----3-----3-----|
--------------0-----|-----0--------------|-----2--------------|
--------2--4--------|-----------4--2-----|--0--------2--4-----|
-----2--------------|--3--------------3--|-----------------3--|
--0-----------------|--------------------|--------------------|


                                              ^               
  E  E  E  E   E   E     E  E  E  E  E  E     Q    Q    Q     
----------------------|--------------------|--0--------------|
--0------------0------|--0-----0-----0-----|--0---------3----|
--------0--2-------0--|-----0-----0-----0--|--0----2---------|
-----0--------(0)-----|--2-----2-----2-----|--2--------------|
--------------(0)-----|--3-----3-----3-----|--3--------------|
--3-------------------|--3-----3-----3-----|--3--------------|


  E  E  E  E  E  E     E  E  E  E  E  E     E  E  E  E  E  E   
--------------------|--------------------|--0-----------0-----|
--------------------|-----------------1--|-----------1-----1--|
--0-----0-----------|--------------0-----|--------0-----------|
-----2-----5--4--0--|--2--------2--------|-----2--------2-----|
--0-----------2-----|--3-----3-----------|--------------------|
--------------------|-----3--------------|--------------------|


  E  E  E  E  E  E     E  E  E  E  E  E     E  E  E  E  E   E    
--------------0-----|--0-----------------|--------------3-------|
-----------1--1-----|--1-----3-----1-----|--0--------0-----(0)--|
--2-----2--------2--|-----2-----2-----2--|--------0-------------|
-----2--------------|--------------------|-----0----------------|
--0-----------------|--------------------|----------------------|
--------------------|--1-----------------|--3-------------------|


                       ^                    ^               ^              
 E  E  E   E  E  E     Q    Q    E   E      H.              E  E  E  E E E
-3------------------|--2-----------------|--2------------|--0----------0---|
-----------------0--|--3----3-------(2)--|--2------------|--1----------1---|
--------------0-----|--4---------4-------|--2------------|--2--------2---2-|
-------2s--4--------|--4-----------------|--4------------|--2-----2--------|
----2---------------|--2-----------------|--4------------|--0--0-----------|
-0------------------|--2-----------------|--2------------|-----------------|


  ^                                                          
  Q    Q    E  E     E  E  E  E  E  E     E  E  E  E  E  E   
------------------|--------------2-----|--2-----0-----------|
--5----4----------|-----------3--3-----|--0--------0--3-----|
--4----4----4--2--|--4-----4--------4--|-----0-----------0--|
--4---------------|-----4--------------|--------------------|
--2---------------|--2-----------------|--------------------|
--2---------------|--------------------|--3-----------------|


                                               ^                  
  E  E  E  E  E   E      E  E  E  E   E  E     Q    Q    E   E    
--------------5-------|--5------------------|--4-----------------|
--2--------2-----(2)--|------------------0--|--5----5-------(0)--|
--------2-------------|-----------1s--2-----|--6---------6-------|
-----2----------------|--------4------------|--6-----------------|
--0-------------------|-----4---------------|--4-----------------|
----------------------|--2------------------|--4-----------------|


                   ^                 ^                    ^              
  H        Q       H        E  E     E  E  E  E  E  E     H.             
-----------2----|--2--------------|--2-----------2-----|--7------------||
--0-------------|--2--------------|--4--------------4--|--4------------||
--0-------------|--2-----------2--|--4--------4--------|--4------------||
--0-------------|--4--------4-----|--4-----4-----------|--4------------||
--x-------------|--4--------------|--2--2--------------|--2------------||
--3-------------|--2--------------|--2-----------------|--2------------||




Duration Legend
---------------
W - whole
H - half
Q - quarter
E - 8th
S - 16th
T - 32nd
X - 64th
. - note dotted
|-n-|  - n-tuplets


Tablature Legend
----------------
L - tied note
x - dead note
g - grace note
(n) - ghost note
> - accentuded note
NH - natural harmonic
AH - artificial harmonic
TH - tapped harmonic
SH - semi harmonic
PH - pitch harmonic
h - hammer on
p - pull off
b - bend
br - bendRelease
pb - preBend
pbr - preBendRelease
brb - bendReleaseBend
\n/ - tremolo bar dip
\n - tremolo bar dive
-/n - tremolo bar Release up
/n\ - tremolo bar inverted dip
/n - tremolo bar return
-\n - tremolo bar Release down
S - shift slide
s - legato slide
/ -  slide into from below or out of upwards
\ -  slide into from above or out of downwards
~ - vibrato
W - wide vibrato
tr - trill
TP - tremolo picking
T - tapping
S - slap
P - pop
< - fade in
^ - brush up
v - brush down





Comments


Popular Rob Scallon tabs & chords
April Is The Cruelest Month Tabs
For That Second Tabs
Ragtime Tabs
Rain Tabs
Somewhere To Run To Tabs
Teagen Tabs
The T-shirt Song Tabs
This Week 2 Tabs
Time Spent Wondering Tabs
Untitled Forever Tabs


Song lyrics



↑ Back to top | Tablatures and chords are parodies/interpretations of the original songs. You may use it for private study, scholarship, research or language learning purposes only
© 2014 AZChords.com Contact us | Privacy policy | DMCA | Add/correct tabs | Request tabs | Top 50 tabs