» » »

Time Spent Wondering Tabs (ver.1)

Artists:  A B C D E F G H I J K L M N O P Q R S T U V W X Y Z # 

Time Spent Wondering Tabs (ver.1)

Rob Scallon
Rating:
0/5 (0 votes)

Hard to play? Try these video lessons and learn fast.
                                        Time Spent Wondering  
                            Rob Scallon                            



   
E||-------------------|-------------------|--------------------|
B||-------------------|-------------------|--------------------|
G||--4----------------|--5----------------|--4--------------2--|
D||--0----------------|--0----------------|--0--------------0--|
A||--2----------------|--3----------------|--2--------------0--|
E||--3----------------|--5----------------|--3--------------2--|

              
-------------------|--------------------|-------------------|
-------------------|--------------------|-------------------|
--4----------------|--4------------7----|--5----------------|
--0----------------|--0------------0----|--0----------------|
--2----------------|--2------------5----|--3----------------|
--3----------------|--3------------7----|--5----------------|

       
--------------------|-------------------||
--------------------|-------------------||
--4--------------2--|--4----------------||
--0--------------0--|--0----------------||
--2--------------0--|--2----------------||
--3--------------2--|--3----------------||




||-----------------------|
||-----------------------|
||*--12--------11--------|
||*---0---------0--------|
||---10---------9--------|
||---12--------10--------|


---------------------------|------------------------||               
---------------------------|------------------------||
--9s----11----7----5s-4----|--12------11--------14-*||
--0------------------------|---0-------0---------0-*||
--7s-----9----5------------|--10-------9--------12--||
--8s----10----7------------|--12------10--------14--||   X2

  


   
||-------------------------------|-------------------------|
||--------17---15---13~----12----|-------------------------|
||--17---------------------------|--16----14s--12----------|
||---0---------------------------|---0---------------------|
||--15---------------------------|--14---------------------|
||--17---------------------------|--15---------------------|


-------------------------------|-------------------------|
--------17---15---13~----12----|-------------------------|
--17---------------------------|--16----14s--12----------|
---0---------------------------|---0---------------------|
--15---------------------------|--14---------------------|
--17---------------------------|--15---------------------|


--------15---14---12~----10----|---------8s--7----------|
--------17---15---13~----12----|--------10---8----------|
--17---------------------------|--16--------------------|
---0---------------------------|---0--------------------|
--15---------------------------|--14--------------------|
--17---------------------------|--15--------------------|

 
--------15---14---12~----10----|---------8s--7----------||
--------17---15---13~----12----|--------10---8----------||
--17---------------------------|--16--------------------||
---0---------------------------|---0--------------------||
--15---------------------------|--14--------------------||
--17---------------------------|--15--------------------||

 


||--------------------------|--------------------------|
||--------------------------|--------------------------|
||--4-----------------4-----|--5-----------------5-----|
||-----0-----------0-----0--|-----0-----------0-----0--|
||--------2-----2-----------|--------3-----3-----------|
||--3--------3--------------|--5--------5--------------|


--------------------------|--------------------------|
--------------------------|--------------------------|
--4-----------------4--2--|--4-----------------4-----|
-----0-----------0--------|-----0-----------0-----0--|
--------2-----2-----------|--------2-----2-----------|
--3--------3-----------2--|--3--------3--------------|

 
--------------------------|--------------------------|
--------------------------|--------------------------|
--4-----------------7-----|--5-----------------5-----|
-----0-----------0-----0--|-----0-----------0-----0--|
--------2-----2-----------|--------3-----3-----------|
--3--------3--------7-----|--5--------5--------------|


--------------------------|--------------------------||
--------------------------|--------------------------||
--4-----------------4--2--|--4-----------------4-----||
-----0-----------0--------|-----0-----------0-----0--||
--------2-----2-----------|--------2-----2-----------||
--3--------3-----------2--|--3--------3--------------||





||--------------------------------|----------------------------|
||--------------------------------|----------------------------|
||*--12-------------11------------|--9-----11-----7-----5-4----|
||*------0--------------0---------|-----0------0-----0------0--|
||----------10-------------9------|----------------------------|
||---12---------12--10--------10--|--8-----10-----7------------|

  
-------------------------------|--------------------------------||
-------------------------------|--------------------------------||
--12---------11------------14--|--------------------14---------*||
------0----------0-------------|--0--------------0------0------*||
---------10---------9----------|-----12------12------------12---||
--12---------10--------10--14--|---------14---------------------||  X2





||----------------------------|--------------------------|
||--------5---3---1-----0-----|--------------------0-----|
||--5----------------0-----0--|--4-----2--0-----0-----0--|
||-----0----------------------|-----0--------0-----------|
||----------------------------|--------------------------|
||--5-------------------------|--3-----------------------|

----------------------------|--------------------------|
--------5---3---1-----0-----|--------------------0-----|
--5----------------0-----0--|--4-----2--0-----0-----0--|
-----0----------------------|-----0--------0-----------|
----------------------------|--------------------------|
--5-------------------------|--3-----------------------|

--------3---2---0------------|--------------------------|
--------5---3------1S--3-----|--------1--0--------0-----|
--5-----------------------4--|--4-----2--0-----0-----0--|
-----0-----------------------|-----0--------0-----------|
-----------------------------|--------------------------|
--5--------------------------|--3-----------------------|

 
--------3---2---0------------|---------------------------||
--------5---3------1S--3-----|--------1--0--------0------||
--5-----------------------4--|--4-----2--0-----0---------||
-----0-----------------------|-----0--------0------------||
-----------------------------|---------------------------||
--5--------------------------|--3--------------------3s--||




||----------------------------------|----------------------------|
||--------12---10---8----<5>0-------|--12---13----12~------------|
||-----------------------<5>0-------|----------------------------|
||--------12---10---9---------------|--12s--14----12~------------|
||----------------------------------|----------------------------|
||--10------------------------<12>0-|------------------------3s--|

 
-------------------------------------|----------------------------------|
--------12---10---8----<5>0----------|--12---13----12~----15---13-------|
---------------------------<5>0------|----------------------------------|
--------12---10---9------------------|--12s--14----12~----14---12-------|
-------------------------------------|----------------------------------|
--10---------------------------<12>0-|------------------------------3s--|


----------------------------------|----------------------------|
--------12---10---8----<5>0-------|--12---13----12~------------|
-----------------------<5>0-------|----------------------------|
--------12---10---9---------------|--12s--14----12~------------|
----------------------------------|----------------------------|
--10------------------------<12>0-|------------------------3s--|

 
-------------------------------|--------------------------------||
--------12---10---8------------|--12---13----12~----15---13-----||
-----------------------0-------|-----------------------------0--||
--------12---10---9------------|--12s--14----12~----14---12-----||
-------------------------------|--------------------------------||
--10---------------------<12>0-|--------------------------------||





||--------------------------------|--------------------------------|
||-------------13-----------------|-------------12-----------------|
||----------0------0--------------|----------0------0--------------|
||------12------------12------12--|------12------------12------12--|
||--------------------------------|--------------------------------|
||--14--------------------14------|--14--------------------14------|

 
--------------------------------|---------------------------------|
-------------12-----------------|-------------12------------------|
----------0------0--------------|----------0------0---------------|
------10------------10------10--|------10------------10------10S--|
--------------------------------|---------------------------------|
--12--------------------12------|--12--------------------12-------|


              ^                                                   
--------------------------------|--------------------------------|
-------------13-----------------|-------------12-----------------|
----------0------0--------------|----------0------0--------------|
------12------------12------12--|------12------------12------12--|
--------------------------------|--------------------------------|
--14--------------------14------|--14--------------------14------|


--------------------------------|-------------------------------|
-------------12-----------------|-------------10---------12-----|
----------0------0--------------|----------0------0----------0--|
------10------------10------10--|------10------------10---------|
--------------------------------|-------------------------------|
--12--------------------12------|--12---------------------------|


-----------------------------|----------------------------|
------------10--------12-----|------------10--------8-----|
---------0------0---------0--|---------0------0--------0--|
------9------------9---------|------9------------9--------|
-----------------------------|----------------------------|
--10-------------------------|--10------------------------|

                
----------------------------|--------------------------|----------------||
------------7---------------|-------------7s--8--------|----------------||
---------0--7--7------------|---------0---0------------|----------------||
------9-----------9------9--|------9------9------------|----------------||
--10-----------------10-----|--10--------10------------|----------------||
----------------------------|--------------------------|----------------||




Duration Legend
---------------
W - whole
H - half
Q - quarter
E - 8th
S - 16th
T - 32nd
X - 64th
. - note dotted
|-n-|  - n-tuplets


Tablature Legend
----------------
L - tied note
x - dead note
g - grace note
(n) - ghost note
> - accentuded note
NH - natural harmonic
AH - artificial harmonic
TH - tapped harmonic
SH - semi harmonic
PH - pitch harmonic
h - hammer on
p - pull off
b - bend
br - bendRelease
pb - preBend
pbr - preBendRelease
brb - bendReleaseBend
\n/ - tremolo bar dip
\n - tremolo bar dive
-/n - tremolo bar Release up
/n\ - tremolo bar inverted dip
/n - tremolo bar return
-\n - tremolo bar Release down
S - shift slide
s - legato slide
/ -  slide into from below or out of upwards
\ -  slide into from above or out of downwards
~ - vibrato
W - wide vibrato
tr - trill
TP - tremolo picking
T - tapping
S - slap
P - pop
< - fade in
^ - brush up
v - brush down
            
Hard to play? Try these video lessons and learn fast. | Correct




comments powered by Disqus
↑ Back to top | Tablatures and chords are parodies/interpretations of the original songs. You may use it for private study, scholarship, research or language learning purposes only