>
 >
This Week 2

This Week 2 Guitar Tabs

Rob Scallon - This Week 2 chords, tabs, tablatures, lyrics

Guitar lessons | Add/correct | Request | Top 50 tabs Artists:  A B C D E F G H I J K L M N O P Q R S T U V W X Y Z 0-9

This Week 2 Guitar Tabs – Rob Scallon

CD, Sheet music, Poster

Do you like This Week 2? Share with your friends now
Tabs
 This Week 2                                 
    by Rob Scallon




       E  E  E   E    Q    E  E  E   E    Q     
D#||-------------------------------------------|
A#||-------------------------------------------|
F#||*-----------11s--13-------------11s--13----|
C#||*--------9-------------------9-------------|
G#||------7-------------------7----------------|
D#||---0-------------------0-------------------|


  E  E  E   E    Q    E  E  E   E    Q     
------------------------------------------|
------------------------------------------|
-----------11s--13-------------11s--13----|
--------9-------------------9-------------|
-----7-------------------7----------------|
--0-------------------0-------------------|


  E  E  E  E   Q    E  E  E  E   Q     
--------------------------------------|
--------------------------------------|
-----------8s--9-------------8s--9----|
--------6-----------------6-----------|
-----4-----------------4--------------|
--0-----------------0-----------------|


  E  E  E  E   Q    E  E  E  E   E  E   
---------------------------------------|
------------------------------------0--|
-----------8s--9-------------8s--9-----|
--------6-----------------6------------|
-----4-----------------4---------------|
--0-----------------0------------------|


  E  E  E   E    Q    E  E  E   E    Q     
------------------------------------------|
------------------------------------------|
-----------11s--13-------------11s--13----|
--------9-------------------9-------------|
-----7-------------------7----------------|
--0-------------------0-------------------|


  E  E  E   E    Q    E  E  E   E    Q     
------------------------------------------|
------------------------------------------|
-----------11s--13-------------11s--13----|
--------9-------------------9-------------|
-----7-------------------7----------------|
--0-------------------0-------------------|


  E  E  E  E   Q    E  E  E  E   Q     
--------------------------------------|
--------------------------------------|
-----------8s--9-------------8s--9----|
--------6-----------------6-----------|
-----4-----------------4--------------|
--0-----------------0-----------------|


  E  E  E  E   Q    E  E  E  E   E  E     
----------------------------------------||
------------------------------------0---||
-----------8s--9-------------8s--9-----*||
--------6-----------------6------------*||
-----4-----------------4----------------||
--0-----------------0-------------------||


  E  E  E  E   Q    E  E  E  E   Q     
--------------------------------------|
--------------------------------------|
-----------8s--9-------------8s--9----|
--------6-----------------6-----------|
-----4-----------------4--------------|
--0-----------------0-----------------|


  E  E  E  E   Q    E  E  E  E   Q     
--------------------------------------|
--------------------------------------|
-----------8s--9-------------8s--9----|
--------6-----------------6-----------|
-----0-----------------0--------------|
--5-----------------5-----------------|


    E  E  E  E  Q    E  E  E  E  Q     
|-------------------------------------|
|---------------0----------------0----|
|*-----------1----------------1-------|
|*--------2----------------2----------|
|------2----------------2-------------|
|---0----------------0----------------|


  E  E  E  E  Q    E  E  E  E  Q       E  E  E  E  Q    E  E  E  E  Q     
------------------------------------|------------------------------------|
--------------0----------------0----|--------------0----------------0----|
-----------4----------------2-------|-----------1----------------1-------|
--------6----------------4----------|--------2----------------2----------|
-----6----------------4-------------|-----2----------------2-------------|
--0----------------0----------------|--0----------------0----------------|


  E  E  E  E  Q    E  E  E  E  Q       
-------------------------------------||
--------------0----------------0-----||
-----------1----------------1-------*||
--------2----------------2----------*||
-----0----------------0--------------||
--2----------------2-----------------||


  E  E  E  E  Q    E  E  E  E  Q       E  E  E  E  Q    E  E  E  E  Q     
--------------0----------------0----|------------------------------------|
-----------0----------------0-------|--------------0----------------0----|
--------1----------------1----------|-----------1----------------1-------|
-----2----------------2-------------|--------2----------------2----------|
--0----------------0----------------|-----0----------------0-------------|
------------------------------------|--2----------------2----------------|


  E  E  E  E  Q    E  E  E  E  E   E   
--------------4----------------4p--0--|
-----------0----------------0---------|
--------1----------------1------------|
-----2----------------2---------------|
--0----------------0------------------|
--------------------------------------|


    E  E  E   E    Q    E  E  E   E    Q     
|-------------------------------------------|
|-------------------------------------------|
|*-----------11s--13-------------11s--13----|
|*--------9-------------------9-------------|
|------7-------------------7----------------|
|---0-------------------0-------------------|


  E  E  E   E    Q    E  E  E   E    Q     
------------------------------------------|
------------------------------------------|
-----------11s--13-------------11s--13----|
--------9-------------------9-------------|
-----7-------------------7----------------|
--0-------------------0-------------------|


  E  E  E  E   Q    E  E  E  E   Q     
--------------------------------------|
--------------------------------------|
-----------8s--9-------------8s--9----|
--------6-----------------6-----------|
-----4-----------------4--------------|
--0-----------------0-----------------|


  E  E  E  E   Q    E  E  E  E   E  E   
---------------------------------------|
------------------------------------0--|
-----------8s--9-------------8s--9-----|
--------6-----------------6------------|
-----4-----------------4---------------|
--0-----------------0------------------|


  E  E  E   E    Q    E  E  E   E    Q     
------------------------------------------|
------------------------------------------|
-----------11s--13-------------11s--13----|
--------9-------------------9-------------|
-----7-------------------7----------------|
--0-------------------0-------------------|


  E  E  E   E    Q    E  E  E   E    Q     
------------------------------------------|
------------------------------------------|
-----------11s--13-------------11s--13----|
--------9-------------------9-------------|
-----7-------------------7----------------|
--0-------------------0-------------------|


  E  E  E  E   Q    E  E  E  E   Q     
--------------------------------------|
--------------------------------------|
-----------8s--9-------------8s--9----|
--------6-----------------6-----------|
-----4-----------------4--------------|
--0-----------------0-----------------|


  E  E  E  E   Q    E  E  E  E   E  E     
----------------------------------------||
------------------------------------0---||
-----------8s--9-------------8s--9-----*||
--------6-----------------6------------*||
-----4-----------------4----------------||
--0-----------------0-------------------||


  E  E  E  E   Q    E  E  E  E   Q     
--------------------------------------|
--------------------------------------|
-----------8s--9-------------8s--9----|
--------6-----------------6-----------|
-----4-----------------4--------------|
--0-----------------0-----------------|


  E  E  E  E   Q    E  E  E  E   Q     
--------------------------------------|
--------------------------------------|
-----------8s--9-------------8s--9----|
--------6-----------------6-----------|
-----0-----------------0--------------|
--5-----------------5-----------------|


    E  E  E  E  Q    E  E  E  E  Q     
|-------------------------------------|
|---------------0----------------0----|
|*-----------1----------------1-------|
|*--------2----------------2----------|
|------2----------------2-------------|
|---0----------------0----------------|


  E  E  E  E  Q    E  E  E  E  Q       E  E  E  E  Q    E  E  E  E  Q     
------------------------------------|------------------------------------|
--------------0----------------0----|--------------0----------------0----|
-----------4----------------2-------|-----------1----------------1-------|
--------6----------------4----------|--------2----------------2----------|
-----6----------------4-------------|-----2----------------2-------------|
--0----------------0----------------|--0----------------0----------------|


  E  E  E  E  Q    E  E  E  E  Q       
-------------------------------------||
--------------0----------------0-----||
-----------1----------------1-------*||
--------2----------------2----------*||
-----0----------------0--------------||
--2----------------2-----------------||


  E  E  E  E  Q    E  E  E  E  Q     
--------------0----------------0----|
-----------0----------------0-------|
--------1----------------1----------|
-----2----------------2-------------|
--0----------------0----------------|
------------------------------------|


    E  E  E   E    Q    E  E  E  E  Q      
|-----------------------------------------|
|-----------------------------------------|
|*-----------11s--13----------------------|
|*--------9-------------------9--7--6~----|
|------7-------------------7--------------|
|---0-------------------5-----------------|


  E  E  E   E    Q    E  E  E  E  E  E     
-----------------------------------------||
-----------------------------------------||
-----------11s--13----------------------*||
--------9-------------------9--7--6-----*||
-----7-------------------7-----------7---||
--0-------------------5------------------||


   E  E  E  E  Q     E  E  E  E  Q      
---------------------------------------|
---------------------------------------|
*--------------------------------------|
*--------9--7--6~----------9--7--6~----|
------7-----------------7--------------|
---9-----------------7-----------------|


  E  E  E  E  Q     E  E  E  E  E  E     
---------------------------------------||
---------------------------------------||
--------------------------------------*||
--------9--7--6~----------9--7--6-----*||
-----7-----------------7-----------7---||
--5-----------------4------------------||


  E  E  E  E  Q     E  E  E  E  Q      
--------------------------------------|
--------------------------------------|
--------------------------------------|
--------9--7--6~----------9--7--6~----|
-----7-----------------7--------------|
--9-----------------7-----------------|


  E  E  E  E  Q     E  E  E  E  E  E   
--------------------------------------|
--------------------------------------|
--------------------------------------|
--------9--7--6~----------9--7--6-----|
-----7-----------------7-----------7--|
--5-----------------4-----------------|


  E  E  E  E  Q     E  E  E  E  Q      
--------------------------------------|
--------------------------------------|
--------------------------------------|
--------9--7--6~----------9--7--6~----|
-----7-----------------7--------------|
--9-----------------7-----------------|


  E  E  E  E  Q     E  E  E  E  Q        E  E  E  E  Q     Q    H         
--------------------------------------|----------------------------------|
--------------------------------------|----------------------------------|
--------------------------------------|----------------------------------|
--------9--7--6~----------9--7--6~----|--------9--7--6~----6-------------|
-----7-----------------7--------------|-----7--------------7-------------|
--5-----------------5-----------------|--5-----------------4-------------|


    E  E  E  E  Q    E  E  E  E  Q     
|-------------------------------------|
|---------------0----------------0----|
|*-----------1----------------1-------|
|*--------2----------------2----------|
|------2----------------2-------------|
|---0----------------0----------------|


  E  E  E  E  Q    E  E  E  E  Q       E  E  E  E  Q    E  E  E  E  Q     
------------------------------------|------------------------------------|
--------------0----------------0----|--------------0----------------0----|
-----------4----------------2-------|-----------1----------------1-------|
--------6----------------4----------|--------2----------------2----------|
-----6----------------4-------------|-----2----------------2-------------|
--0----------------0----------------|--0----------------0----------------|


  E  E  E  E  Q    E  E  E  E  Q     4x
-------------------------------------||
--------------0----------------0-----||
-----------1----------------1-------*||
--------2----------------2----------*||
-----0----------------0--------------||
--2----------------2-----------------||


   E  E  E   E    Q    E  E  E   E    Q     
-------------------------------------------|
-------------------------------------------|
*-----------11s--13-------------11s--13----|
*--------9-------------------9-------------|
------7------9s--11-------7------9s--11----|
---0-------------------0-------------------|


  E  E  E   E    Q    E  E  E   E    Q      
------------------------------------------||
------------------------------------------||
-----------11s--13-------------11s--13----||
--------9-------------------9-------------||
-----7------9s--11-------7------9s--11----||
--0-------------------0-------------------||




Duration Legend
---------------
W - whole
H - half
Q - quarter
E - 8th
S - 16th
T - 32nd
X - 64th
. - note dotted
|-n-|  - n-tuplets


Tablature Legend
----------------
L - tied note
x - dead note
g - grace note
(n) - ghost note
> - accentuded note
NH - natural harmonic
AH - artificial harmonic
TH - tapped harmonic
SH - semi harmonic
PH - pitch harmonic
h - hammer on
p - pull off
b - bend
br - bendRelease
pb - preBend
pbr - preBendRelease
brb - bendReleaseBend
\n/ - tremolo bar dip
\n - tremolo bar dive
-/n - tremolo bar Release up
/n\ - tremolo bar inverted dip
/n - tremolo bar return
-\n - tremolo bar Release down
S - shift slide
s - legato slide
/ -  slide into from below or out of upwards
\ -  slide into from above or out of downwards
~ - vibrato
W - wide vibrato
tr - trill
TP - tremolo picking
T - tapping
S - slap
P - pop
< - fade in
^ - brush up
v - brush down





Comments


Popular Rob Scallon tabs & chords
Algonquin Rd Tabs
Anchor Tabs
For That Second Tabs
Heard Again Tabs
I Should Spend More Time With You Tabs
Iilwy Intro Tabs
Poetry Taken Literally Tabs
Short Song Tabs
Skipping Stones Tabs
Theater Girl Tabs


Song lyrics



↑ Back to top | Tablatures and chords are parodies/interpretations of the original songs. You may use it for private study, scholarship, research or language learning purposes only
© 2014 AZChords.com Contact us | Privacy policy | DMCA | Add/correct tabs | Request tabs | Top 50 tabs