>
 >
The T-shirt Song

The T-shirt Song Guitar Tabs

Rob Scallon - The T-shirt Song chords, tabs, tablatures, lyrics

Guitar lessons | Add/correct | Request | Top 50 tabs Artists:  A B C D E F G H I J K L M N O P Q R S T U V W X Y Z 0-9

The T-shirt Song Guitar Tabs – Rob Scallon

CD, Sheet music, Poster

Do you like The T-shirt Song? Share with your friends now
Tabs
 The T-Shirt Song

note* the Ukulele was tuned by ear in the original version. So if you play along to the 
original video it might sound a bit off.


E||--3-------5h-7-3-------5h-7-|--3-------5h-7-3-------5h-7-|
B||----0-----0------0-----0----|----0-----0------0-----0----|
G||------0------------0--------|------0------------0--------|
D||--0-----0------0-----0------|--0-----0------0-----0------|


--0-------2h-3-0-------2h-3-|--0-------2h-3-0-------2h-3-|
----1-----1------1-----1----|----1-----1------1-----1----|
------0------------0--------|------0------------0--------|
--2-----2------2-----2------|--2-----2------2-----2------|


--3-------5h-7-3-------5h-7-|--2-------3h-5-3-------5h-7-|
----0-----0------0-----0----|----0-----0------0-----0----|
------0------------0--------|------0------------0--------|
--0-----0------0-----0------|--0-----0------0-----0------|


--0-------2h-3-0-------2h-3-|--0-------2h-3-0-------2h-3-|
----1-----1------1-----1----|----1-----1------1-----1----|
------0------------0--------|------0------------0--------|
--2-----2------2-----2------|--2-----2------2-----2------|




   1. I'm writing to say...
   2. They're only twenty bucks...
|---3-------5h-7-3-------5h-7-|--3-------5h-7-3-------5h-7-|
|*----0-----0------0-----0----|----0-----0------0-----0----|
|*------0------------0--------|------0------------0--------|
|---0-----0------0-----0------|--0-----0------0-----0------|


--0-------2h-3-0-------2h-3-|--0-------2h-3-0-------2h-3-|
----1-----1------1-----1----|----1-----1------1-----1----|
------0------------0--------|------0------------0--------|
--2-----2------2-----2------|--2-----2------2-----2------|


--3-------5h-7-3-------5h-7-|--2-------3h-5-3-------5h-7-|
----0-----0------0-----0----|----0-----0------0-----0----|
------0------------0--------|------0------------0--------|
--0-----0------0-----0------|--0-----0------0-----0------|


--0-------2h-3-0-------2h-3-|--0-------2h-3-0-------2h-3--||
----1-----1------1-----1----|----1-----1------1-----1----*||
------0------------0--------|------0------------0--------*||
--2-----2------2-----2------|--2-----2------2-----2-------||





   And when you wear one...
--0-------5h-7-0-------5h-7-|--0-------5h-7-0-------5h-7-|
----3-----3------3-----3----|----3-----3------3-----3----|
------0------------0--------|------0------------0--------|
--4-----4------4-----4------|--4-----4------4-----4------|


--0-------2h-3-0-------2h-3-|--0-------2h-3-0-------2h-3-|
----1-----1------1-----1----|----1-----1------1-----1----|
------0------------0--------|------0------------0--------|
--2-----2------2-----2------|--2-----2------2-----2------|


--0-------5h-7-0-------5h-7-|--0-------5h-7-0-------5h-7-|
----3-----3------3-----3----|----3-----3------3-----3----|
------0------------0--------|------0------------0--------|
--4-----4------4-----4------|--4-----4------4-----4------|


--0-------2h-3-0-------2h-3-|--0-------2h-3-3~------|
----1-----1------1-----1----|----1-----1----0-------|
------0------------0--------|------0--------0-------|
--2-----2------2-----2------|--2-----2------0-------|





   So use this link...
--3-------5h-7-3-------5h-7-|--3-------5h-7-3-------5h-7-|
----0-----0------0-----0----|----0-----0------0-----0----|
------0------------0--------|------0------------0--------|
--0-----0------0-----0------|--0-----0------0-----0------|


--0-------2h-3-0-------2h-3-|--0-------2h-3-0-------2h-3-|
----1-----1------1-----1----|----1-----1------1-----1----|
------0------------0--------|------0------------0--------|
--2-----2------2-----2------|--2-----2------2-----2------|


--3-------5h-7-3-------5h-7-|--2-------3h-5-3-------5h-7-|
----0-----0------0-----0----|----0-----0------0-----0----|
------0------------0--------|------0------------0--------|
--0-----0------0-----0------|--0-----0------0-----0------|


                                            ^
--0-------2h-3-0-------2h-3-|--0-------2h-3-3~------|--3--2--3--5--3--5--|
----1-----1------1-----1----|----1-----1----0-------|--0-----------------|
------0------------0--------|------0--------0-------|--0-----------------|
--2-----2------2-----2------|--2-----2------0-------|--0-----------------|


--7--5--7--8--7--8--|--10--8--10--12--10--12--|--12b----12----12b----|
--------------------|-------------------------|----------------------|
--------------------|-------------------------|----------------------|
--------------------|-------------------------|----------------------|


                              There it is!
                         ^
--12b---------12b-----|--3-----------------|-----------||
----------------------|--0-----------------|-----------||
----------------------|--0-----------------|-----------||
----------------------|--0-----------------|-----------||








Lyrics:

I'm writing to say
that I just got T-shirts made
with my last album's artwork
and my name

They're only twenty bucks
and I don't think that's too much
plus, they're way discounted
when you buy with a CD

And when you wear one
you let everyone know you're awesome
plus id be real nice if I
could make back the money I spent on them

So use this link
and buy a T-shirt from me
you can use this link
and buy a t-shirt





Comments


Popular Rob Scallon tabs & chords
Amys Song Tabs
April Is The Cruelest Month Tabs
Faithful Tabs
Heard Again Tabs
Musical Mad Libs 1 Tabs
Mutter Tabs
Poetry Taken Literally Tabs
Ragtime Tabs
Romanza In C Standard Tabs
Teagen Tabs


Song lyrics



↑ Back to top | Tablatures and chords are parodies/interpretations of the original songs. You may use it for private study, scholarship, research or language learning purposes only
© 2014 AZChords.com Contact us | Privacy policy | DMCA | Add/correct tabs | Request tabs | Top 50 tabs