>
 >
Teagen

Teagen Guitar Tabs

Rob Scallon - Teagen chords, tabs, tablatures, lyrics

Guitar lessons | Add/correct | Request | Top 50 tabs Artists:  A B C D E F G H I J K L M N O P Q R S T U V W X Y Z 0-9

Teagen Guitar Tabs – Rob Scallon

CD, Sheet music, Poster

Do you like Teagen? Share with your friends now
Tabs
  
E||---(2)--(2)--(2)--(2)--(2)--(2)--(2)--(2)--(2)--(2)--(2)--(2)--|
B||----------------------------------2----------------------------|
G||*------------------2-----------------------------2-------------|
D||*---0----------------------------------------------------------|
A||---------------------------------------------------------------|
E||---------------------------------------------------------------|



--(2)--(2)--(2)--(2)--(2)--(2)--(2)--(2)--(2)--(2)--(2)--(2)--|
---------------------------------3----------------------------|
------------------2-----------------------------2-------------|
---0----------------------------------------------------------|
--------------------------------------------------------------|
--------------------------------------------------------------|


  
--(3)--(3)--(3)--(3)--(3)--(3)--(3)--(3)--(3)--(3)--(3)--(3)--|
---------------------------------5----------------------------|
------------------4-----------------------------4-------------|
---0----------------------------------------------------------|
--------------------------------------------------------------|
--------------------------------------------------------------|


   
--(3)--(3)--(3)--(3)--(3)--(3)--(3)--(3)--(3)--(3)--(3)--(3)--|
---------------------------------3----------------------------|
------------------4-----------------------------4-------------|
---0----------------------------------------------------------|
--------------------------------------------------------------|
--------------------------------------------------------------|


  
--(5)--(5)--(5)--(5)--(5)--(5)--(5)--(5)--(5)--(5)--(5)--(5)--|
---------------------------------7----------------------------|
------------------6-----------------------------6-------------|
---0----------------------------------------------------------|
--------------------------------------------------------------|
--------------------------------------------------------------|


 
--(5)--(5)--(5)--(5)--(5)--(5)--(5)--(5)--(5)--(5)--(5)--(5)--|
---------------------------------7----------------------------|
------------------6-----------------------------6-------------|
---0----------------------------------------------------------|
--------------------------------------------------------------|
--------------------------------------------------------------|


  
--(3)--(3)--(3)--(3)--(3)--(3)--(3)--(3)--(3)--(3)--(3)--(3)--|
---------------------------------5----------------------------|
------------------6-----------------------------6-------------|
---0----------------------------------------------------------|
--------------------------------------------------------------|
--------------------------------------------------------------|


     
--(3)--(3)--(3)--(3)--(3)--(3)--(3)--(3)--(3)--(3)--(3)--(3)---||
---------------------------------5-----------------------------||
------------------6-----------------------------6-------------*||
---0----------------------------------------------------------*||
---------------------------------------------------------------||
---------------------------------------------------------------||




  
--(10)--(10)--(10)--(10)--(10)--(10)--(10)--(10)--(10)--(10)--(10)--(1
----------------------------------------7-----------------------------
----------------------7-----------------------------------7-----------
----0-----------------------------------------------------------------
----------------------------------------------------------------------
----------------------------------------------------------------------


   
--(9)--(9)--(9)--(9)--(9)--(9)--(9)--(9)--(9)--(9)--(9)--(9)--|
---------------------------------7----------------------------|
------------------7-----------------------------7-------------|
---0----------------------------------------------------------|
--------------------------------------------------------------|
--------------------------------------------------------------|


 
--(7)--(7)--(7)--(7)--(7)--(7)--(7)--(7)--(7)--(7)--(7)--(7)--|
---------------------------------7----------------------------|
------------------7-----------------------------7-------------|
---0----------------------------------------------------------|
--------------------------------------------------------------|
--------------------------------------------------------------|


  
--(5)--(5)--(5)--(5)--(5)--(5)--(5)--(5)--(5)--(5)--(5)--(5)--|
---------------------------------7----------------------------|
------------------6-----------------------------6-------------|
---0----------------------------------------------------------|
--------------------------------------------------------------|
--------------------------------------------------------------|


 
--(3)--(3)--(3)--(3)--(3)--(3)--(3)--(3)--(3)--(3)--(3)--(3)--|
---------------------------------5----------------------------|
------------------4-----------------------------4-------------|
---0----------------------------------------------------------|
--------------------------------------------------------------|
--------------------------------------------------------------|


 
--(3)--(3)--(3)--(3)--(3)--(3)--(3)--(3)--(3)--(3)--(3)--(3)--|
---------------------------------5--------------3-------------|
------------------4-------------------------------------------|
---0----------------------------------------------------------|
--------------------------------------------------------------|
--------------------------------------------------------------|


  
--(2)--(2)--(2)--(2)--(2)--(2)--(2)--(2)--(2)--(2)--(2)--(2)--|
---------------------------------2----------------------------|
------------------2-----------------------------2-------------|
---0----------------------------------------------------------|
--------------------------------------------------------------|
--------------------------------------------------------------|


 
--(5)--(5)--(5)--(5)--(5)--(5)--(3)--(3)--(3)--(3)--(3)--(3)--|
---7-----------------------------5----------------------------|
---6-----------------------------4----------------------------|
---0-----------------------------0----------------------------|
--------------------------------------------------------------|
--------------------------------------------------------------|




 
--(2)--(2)--(2)--(2)--(2)--(2)--(2)--(2)--(2)--(2)--(2)--(2)--|
---------------------------------2----------------------------|
------------------2-----------------------------2-------------|
---0----------------------------------------------------------|
--------------------------------------------------------------|
--------------------------------------------------------------|


 
--(2)--(2)--(2)--(2)--(2)--(2)--(2)--(2)--(2)--(2)--(2)--(2)--|
---------------------------------3----------------------------|
------------------2-----------------------------2-------------|
---0----------------------------------------------------------|
--------------------------------------------------------------|
--------------------------------------------------------------|


  
--(3)--(3)--(3)--(3)--(3)--(3)--(3)--(3)--(3)--(3)--(3)--(3)--|
---------------------------------5----------------------------|
------------------4-----------------------------4-------------|
---0----------------------------------------------------------|
--------------------------------------------------------------|
--------------------------------------------------------------|


 
--(3)--(3)--(3)--(3)--(3)--(3)--(3)--(3)--(3)--(3)--(3)--(3)--|
---------------------------------3----------------------------|
------------------4-----------------------------4-------------|
---0----------------------------------------------------------|
--------------------------------------------------------------|
--------------------------------------------------------------|


 
--(5)--(5)--(5)--(5)--(5)--(5)--(5)--(5)--(5)--(5)--(5)--(5)--|
---------------------------------7----------------------------|
------------------6-----------------------------6-------------|
---0----------------------------------------------------------|
--------------------------------------------------------------|
--------------------------------------------------------------|



--(5)--(5)--(5)--(5)--(5)--(5)--(5)--(5)--(5)--(5)--(5)--(5)--|
---------------------------------7----------------------------|
------------------6-----------------------------6-------------|
---0----------------------------------------------------------|
--------------------------------------------------------------|
--------------------------------------------------------------|


  
--(5)--(5)--(5)--(5)--(5)--(5)--(5)--(5)--(5)--(5)--(5)--(5)--|
---------------------------------7----------------------------|
------------------6-----------------------------6-------------|
--------------------------------------------------------------|
---0----------------------------------------------------------|
--------------------------------------------------------------|


  
--(5)--(5)--(5)--(5)--(5)--(5)--(5)--(5)--(5)--(5)--(5)--(5)--|
---------------------------------7----------------------------|
------------------8-----------------------------8-------------|
--------------------------------------------------------------|
---0----------------------------------------------------------|
--------------------------------------------------------------|


--(12)--(12)--(12)--(12)--(12)--(12)--(12)--(12)--(12)--(12)--(12)--(1
----------------------------------------9-----------------------------
----------------------9-----------------------------------9-----------
----------------------------------------------------------------------
----------------------------------------------------------------------
----0-----------------------------------------------------------------


--(11)--(11)--(11)--(11)--(11)--(11)--(11)--(11)--(11)--(11)--(11)--(1
----------------------------------------9-----------------------------
----------------------9-----------------------------------9-----------
----------------------------------------------------------------------
----------------------------------------------------------------------
----0-----------------------------------------------------------------



--(9)--(9)--(9)--(9)--(9)--(9)--(9)--(9)--(9)--(9)--(9)--(9)--|
---------------------------------9----------------------------|
------------------9-----------------------------9-------------|
--------------------------------------------------------------|
--------------------------------------------------------------|
---0----------------------------------------------------------|


  
--(7)--(7)--(7)--(7)--(7)--(7)--(7)--(7)--(7)--(7)--(7)--(7)--|
---------------------------------9----------------------------|
------------------8-----------------------------8-------------|
--------------------------------------------------------------|
--------------------------------------------------------------|
---0----------------------------------------------------------|


   
--(5)--(5)--(5)--(5)--(5)--(5)--(5)--(5)--(5)--(5)--(5)--(5)--|
---------------------------------7----------------------------|
------------------6-----------------------------6-------------|
--------------------------------------------------------------|
--------------------------------------------------------------|
---0----------------------------------------------------------|


  
--(5)--(5)--(5)--(5)--(5)--(5)--(5)--(5)--(5)--(5)--(5)--(5)--|
---------------------------------7--------------5-------------|
------------------6-------------------------------------------|
--------------------------------------------------------------|
--------------------------------------------------------------|
---0----------------------------------------------------------|


  
--(4)--(4)--(4)--(4)--(4)--(4)--(4)--(4)--(4)--(4)--(4)--(4)--|
---------------------------------4----------------------------|
------------------4-----------------------------4-------------|
--------------------------------------------------------------|
--------------------------------------------------------------|
---0----------------------------------------------------------|


   
--(4)--(4)--(4)--(4)--(4)--(4)--(4)--(4)--(4)--(4)--(4)--(4)--|
---------------------------------5----------------------------|
------------------4-----------------------------4-------------|
---6----------------------------------------------------------|
--------------------------------------------------------------|
--------------------------------------------------------------|


  
--(4)--(4)--(4)--(4)--(4)--(4)--(4)--(4)--(4)--(4)--(4)--(4)--|
---------------------------------4----------------------------|
------------------4--------------4--------------4-------------|
---6-----------------------------6----------------------------|
---7----------------------------------------------------------|
---0----------------------------------------------------------|


                    
--(4)--(4)--(4)--(4)--(4)--(4)--4--------|-----------||
--------------------------------5--------|-----------||
------------------4-------------4--------|-----------||
---6----------------------------6--------|-----------||
---7----------------------------7--------|-----------||
---0----------------------------0--------|-----------||




Duration Legend
---------------
W - whole
H - half
Q - quarter
E - 8th
S - 16th
T - 32nd
X - 64th
. - note dotted
|-n-|  - n-tuplets


Tablature Legend
----------------
L - tied note
x - dead note
g - grace note
(n) - ghost note
> - accentuded note
NH - natural harmonic
AH - artificial harmonic
TH - tapped harmonic
SH - semi harmonic
PH - pitch harmonic
h - hammer on
p - pull off
b - bend
br - bendRelease
pb - preBend
pbr - preBendRelease
brb - bendReleaseBend
\n/ - tremolo bar dip
\n - tremolo bar dive
-/n - tremolo bar Release up
/n\ - tremolo bar inverted dip
/n - tremolo bar return
-\n - tremolo bar Release down
S - shift slide
s - legato slide
/ -  slide into from below or out of upwards
\ -  slide into from above or out of downwards
~ - vibrato
W - wide vibrato
tr - trill
TP - tremolo picking
T - tapping
S - slap
P - pop
< - fade in
^ - brush up
v - brush down





Comments


Popular Rob Scallon tabs & chords
Le Gentil Bass Tabs
Procrastination Bassin Bass Tabs
Disposable Tabs
Letters From Boston Tabs
Musical Mad Libs 1 Tabs
Mutter Tabs
Ragtime Tabs
Run On Sentences Tabs
The T-shirt Song Tabs
Untitled Forever Tabs


Song lyrics



↑ Back to top | Tablatures and chords are parodies/interpretations of the original songs. You may use it for private study, scholarship, research or language learning purposes only
© 2014 AZChords.com Contact us | Privacy policy | DMCA | Add/correct tabs | Request tabs | Top 50 tabs