>
 >
Somewhere To Run To

Somewhere To Run To Guitar Tabs

Rob Scallon - Somewhere To Run To chords, tabs, tablatures, lyrics

Guitar lessons | Add/correct | Request | Top 50 tabs Artists:  A B C D E F G H I J K L M N O P Q R S T U V W X Y Z 0-9

Somewhere To Run To Guitar Tabs – Rob Scallon

CD, Sheet music, Poster

Do you like Somewhere To Run To? Share with your friends now
Tabs
Somewhere to Run To                               
Rob Scallon

Track 1 (Capo 5)


     E  E  E  E   E  E  E  E     E  E  E  E  E  E  E  E    
E||-----------0------------0--|-----0--------0--------0---|
C||--------0------------0-----|--------5--------5-----4\--|
G||-----0------------0--------|---------------------------|
C||---------------------------|--0--------0--------0------|
A||--0-----------/7-----------|--3--------3--------3------|
F||---------------------------|---------------------------|


     v  ^        v  ^                                 
  E  E  Q     E  E  Q       E  E  E  E  E  E  E  E    
-----0--0--------0--0----|-----0--------0--------0---|
--L--0--0--------0--0----|--------2--------2-----4\--|
-----0--0--------0--0----|---------------------------|
--------0-----------0----|--0--------0--------0------|
-------------/7----------|--3--------3--------3------|
-------------------------|---------------------------|


     v  ^        v                                     
  E  E  Q     E  E  Q        E  E  E  E  E  E  E  E    
-----0--0--------0--------|-----0--------0--------0---|
--L--0--0--------0--------|--------5--------5-----4\--|
-----0--0--------0--------|---------------------------|
--------0-----------7\----|--0--------0--------0------|
-------------/7-----------|--3--------3--------3------|
--------------------------|---------------------------|


     v  ^       v                                   
  E  E  Q    E  E  Q       E  E  E  E  E  E  E  E   
-----0--0-------0-------|-----0--------0--------0--|
--L--0--0-------0-------|--------2--------2--------|
-----0--0-------0-------|--------------------------|
--------0---------------|--2--------2--------2-----|
------------------------|--3--------3--------3-----|
-------------4-----2----|--------------------------|


  E  E  E  E  E  E  E  E     E  E  E  E  E  E  E  E   
-----0--------0--------0--|-----0-----------------0--|
--------4--------4-----4--|--------9--------9-----7--|
--------------------------|--------------5--------4--|
--4--------4--------4-----|--0--------0-----------0--|
--5--------5--------5-----|--0-----------------0-----|
--------------------------|--0-----------------------|


           |-3-|     |-3-|     |-3-|  
  E  E  E  S S S S S S S S S S S S S  
--L--0-------------------------------|
--L--7--7----x---------x---------x---|
--L--4--4------x---------x---------x-|
--L--0--0----------------------------|
--------0--x-----5-7-x-----5-7-x-----|
--------0----------------------------|


  E  E  E  E  E  E  E  E   
-----0-----------------0--|
--------9--------9-----7--|
--------------5--------4--|
--0--------0-----------0--|
--0-----------------0-----|
--0-----------------------|


           |-3-|     |-3-|          
  E  E  E  S S S S S S S S S S S S  
--L--0-----------------------------|
--L--7--7----x---------x-----------|
--L--4--4------x---------x---------|
--L--0--0------------------5-7-5-4-|
--------0--x-----5-7-x-------------|
--------0--------------------------|


  E  E  E  E  E  E  E  E   
-----0-----------------0--|
--------9--------9-----7--|
--------------5--------4--|
--0--------0-----------0--|
-----------0--------0-----|
--------------------------|


           |-3-|     |-3-|     |-3-|  
  E  E  E  S S S S S S S S S S S S S  
--L--0-------------------------------|
--L--7--7----x---------x---------x---|
--L--4--4------x---------x---------x-|
--L--0--0----------------------------|
--------0--x-----5-7-x-----5-7-x-----|
--------0----------------------------|


  E  E  E  E  E  E  E  E     E   E  E   Q       E    Q      
-----0-----------------0--|--L-----------------------------|
--------9--------9-----7--|--L--12-----11S~---------12\----|
--------------5--------4--|--L---9------7S~----------9\----|
--0--------0-----------0--|--L------0----------(0)---------|
--0-----------------0-----|---------0----------(0)---------|
--0-----------------------|---------0----------------------|


  E  E  E  E   E  E  E  E     E  E  E  E  E  E  E  E    
-----------0------------0--|-----0--------0--------0---|
--------0------------0-----|--------5--------5-----4\--|
-----0------------0--------|---------------------------|
---------------------------|--0--------0--------0------|
--0-----------/7-----------|--3--------3--------3------|
---------------------------|---------------------------|


     v  ^        v  ^                                 
  E  E  Q     E  E  Q       E  E  E  E  E  E  E  E    
-----0--0--------0--0----|-----0--------0--------0---|
--L--0--0--------0--0----|--------2--------2-----4\--|
-----0--0--------0--0----|---------------------------|
--------0-----------0----|--0--------0--------0------|
-------------/7----------|--3--------3--------3------|
-------------------------|---------------------------|


     v  ^        v                                     
  E  E  Q     E  E  Q        E  E  E  E  E  E  E  E    
-----0--0--------0--------|-----0--------0--------0---|
--L--0--0--------0--------|--------5--------5-----4\--|
-----0--0--------0--------|---------------------------|
--------0-----------7\----|--0--------0--------0------|
-------------/7-----------|--3--------3--------3------|
--------------------------|---------------------------|


     v  ^       v                                      
                                                |-3-|  
  E  E  Q    E  E  Q       E  E  E  E  E  E  E  S S S  
-----0--0-------0-------|-----0--------0--------0-----|
--L--0--0-------0-------|--------2--------2-----2-4-0-|
-----0--0-------0-------|-----------------------------|
--------0---------------|--2--------2--------2--------|
------------------------|--3--------3--------3--------|
-------------4-----2----|-----------------------------|


  E  E  E  E  E  E  E  E     E  E  E  E  E  E  E  E   
-----0--------0--------0--|-----0-----------------0--|
--------0--------0-----0--|--------9--------9-----7--|
--------------------------|--------------5--------4--|
--0--------0--------0-----|--0--------0-----------0--|
--2--------2--------2-----|--0-----------------0-----|
-----------0--------0-----|--0-----------------------|


           |-3-|     |-3-|     |-3-|  
  E  E  E  S S S S S S S S S S S S S  
--L--0-------------------------------|
--L--7--7----x---------x---------x---|
--L--4--4------x---------x---------x-|
--L--0--0----------------------------|
--------0--x-----5-7-x-----5-7-x-----|
--------0----------------------------|


  E  E  E  E  E  E  E  E   
-----0-----------------0--|
--------9--------9-----7--|
--------------5--------4--|
--0--------0-----------0--|
--0-----------------0-----|
--0-----------------------|


           |-3-|     |-3-|          
  E  E  E  S S S S S S S S S S S S  
--L--0-----------------------------|
--L--7--7----x---------x-----------|
--L--4--4------x---------x---------|
--L--0--0------------------5-7-5-4-|
--------0--x-----5-7-x-------------|
--------0--------------------------|


  E  E  E  E  E  E  E  E   
-----0-----------------0--|
--------9--------9-----7--|
--------------5--------4--|
--0--------0-----------0--|
-----------0--------0-----|
--------------------------|


           |-3-|     |-3-|     |-3-|  
  E  E  E  S S S S S S S S S S S S S  
--L--0-------------------------------|
--L--7--7----x---------x---------x---|
--L--4--4------x---------x---------x-|
--L--0--0----------------------------|
--------0--x-----5-7-x-----5-7-x-----|
--------0----------------------------|


  E  E  E  E  E  E  E  E     E  E  E  E  Q    E  E   
-----0-----------------0--|--L--0--0--0--0-------0--|
--------9--------9-----7--|--L--7--7--5--4-------4--|
--------------5--------4--|--L--4--4--2--0-------0--|
--0--------0-----------0--|--L--0--0--0--0----0--0--|
--0-----------------0-----|-----0--0----------0-----|
--0-----------------------|--------0----------0-----|


  E  E  E  E  E   E   E   E     E  E  E  E  E  E  E  E   
-----------0-----10----------|-----------0-----------0--|
--------4-----0------12S--0--|--------0-----------2-----|
-----5-----------------------|-----2-----------4--------|
--0--------------------------|--0-----------0-----------|
--0--------------------------|--0-----------0-----------|
--0--------------------------|--0-----------0-----------|


  E  E  E  E  E   E   E   E   
-----------0-----10----------|
--------4-----0------12S--0--|
-----5-----------------------|
--0--------------------------|
--0--------------------------|
--0--------------------------|


                          NH   NH   NH   NH   
                          |----3----|         
  E  E  E  E  E  S S S    T    T    T    S S  
-----------0-----0--------------------<>12-L-|
--------0----------2-------------<>12--------|
-----2---------------4------<>12-------------|
--0-----------0--------<>12------------------|
--0------------------------------------------|
--0------------------------------------------|


             |-3-|                 
  E  S S S S S S S E   E   E   E   
---------0---------0--10----------|
-------4---4-----4--------12S--0--|
-----5---------5------------------|
--0----------0--------------------|
--0-------------------------------|
--0-------------------------------|


  E  E  E  E  E  E  E  E     E  E  E  E  E   E   E   E    
-----------0-----------0--|-----------0-----10------12\--|
--------0-----------2-----|--------4-----0------12-------|
-----2-----------4--------|-----5------------------------|
--0-----------0-----------|--0---------------------------|
--0-----------0-----------|--0---------------------------|
--0-----------0-----------|--0---------------------------|


  E  E  E  E  E  E  E  E     E  E  E  E  E   E   E   E   
-----------0--------------|-----------------15----------|
--------5-----5-----------|---------------------16\-----|
-----2-----------2--------|-----------0--------------0--|
--0-----------------0-----|--------5-----0--------------|
-----------------------0--|-----7-----------------------|
--------------------------|--0--------------------------|


  E  E  E  S  S E  E  E  S S    E  E  E  E  E   E   E   E   
-----------------------------|-----------------15----------|
-----------------------------|---------------------16\-----|
-----------4s-2----------2-0-|-----------0--------------0--|
--------0-------------0------|--------5-----0--------------|
-----5-------------3---------|-----7-----------------------|
--6-------------4------------|--0--------------------------|


  E  E  E  S  S E  E  E  S S    E  E  E  E  E   E   E   E   
-----------------------------|-----------------15----------|
-----------------------------|---------------------16\-----|
-----------4s-2----------2-0-|-----------0--------------0--|
--------0-------------0------|--------5-----0--------------|
-----5-------------3---------|-----7-----------------------|
--6-------------4------------|--0--------------------------|


  E  E  E  S  S E  E  E  S  S    E  E  E  E  E  E  E  E   
------------------------------|--------------0-----------|
------------------------------|-----------------0--------|
-----------4s-5----------5s-7-|-----------7--------7-----|
--------0-------------0-------|--------0-----------------|
-----5-------------3----------|-----5--------------------|
--6-------------4-------------|--7--------------------7--|


  E  E  E  E  E  E  Q        E  E  E  E   E  E  E  E   
-----------0--------------|-----------0------------0--|
--------------------------|--------0------------0-----|
--------7-----7--5--4~----|-----4------------0--------|
-----0--------------------|---------------------------|
--5-----------------------|--0-----------/7-----------|
--------------------------|---------------------------|


  E  E   E  E  E   E  E  E      E  E  E  E  E  E  E  E   
-----------------------------|--------------0-----------|
-----------------------------|-----------------0--------|
-----------------------------|-----------0--------0-----|
-----7s--9-----5s--7-----5s--|--4--4--4--------------4--|
-----5s--7-----5s--7-----3s--|--2--3--------------------|
--0---------0---------0------|-----2--------------------|


  E  E  E  E   S S  S S E  E     E  E  E  E  E  E  E  E   
------------------------------|-----------0-----------0--|
------------------------------|--------0-----------0-----|
-----4--5------9---10---9--7--|-----9-----------4--------|
-----5--7-----11----9---7--5--|--7-----------2-----------|
------------------------------|--0-----------0-----------|
--0--------0------------------|--0-----------0-----------|


  E  E   E  E  E   E  E  E      E  E  E  E  E  E  E  E   
-----------------------------|--------------0-----------|
-----------------------------|-----------------0--------|
-----------------------------|-----------0--------0-----|
-----7s--9-----5s--7-----5s--|--4--4--4--------------4--|
-----5s--7-----5s--7-----3s--|--2--3--------------------|
--0---------0---------0------|-----2--------------------|


  E  E  E  E   S S  S S E  E     E  E  E  E  E  E  E  E   
------------------------------|-----------0--------------|
------------------------------|--------0--------------0--|
-----5--7------9---10---9--7--|-----9--------------4-----|
-----4--5-----11----9---7--5--|--7--------------2--------|
------------------------------|--0-----------------------|
--0--------0------------------|--0-----------2-----------|


  E  E  E  E  E  E  E  E     E  E  E  E  E  E  E  E   
--------------0-----------|--------------------------|
-----------0-----0--------|-----------0-----------0--|
--------2-----------2-----|--------5-----------4-----|
-----0-----------------0--|-----4-----------2--------|
--------------------------|--------------------------|
--0-----------------------|--4-----------2-----------|


  E  E  E  E  S S E  E  E     E  E  E   E  E  E  E   E   
--------------0------------|----------------------------|
-----------0----0----------|-----------12-----------11--|
--------2---------2--------|--------5------------4------|
-----0---------------0-----|-----4------------2---------|
------------------------0--|----------------------------|
--0------------------------|--4------------2------------|


  E  E  E  E  E  E  E  E     E  E  E   E  E  E  E   E   
-----------0--------7--0--|----------------------------|
--------------0-----7--0--|-----------12-----------11--|
--------2--------2--------|--------5------------4------|
-----0--------------------|-----4------------2---------|
--------------------------|----------------------------|
--0-----------------------|--4------------2------------|


  E  E  E  E  E  E  E  E   
-----------0-----------0--|
--------------0--------0--|
--------2--------2-----0--|
-----0--------------0-----|
--------------------0-----|
--0-----------------0-----|


               |-3-|                 
    E  S S S S S S S E   E   E   E   
|----------0---------0--10----------|
|--------4---4-----4--------12S--0--|
|*-----5---------5------------------|
|*----------------------------------|
|---0----------0--------------------|
|-----------------------------------|


  E  E  E  E  E  E  E  E     
---------------------------||
-----------0-----------0---||
--------4-----------2-----*||
-----2-----------0--------*||
---------------------------||
--2-----------0------------||


             |-3-|                 
  E  S S S S S S S E   E   E   E   
---------0---------0--15----------|
-------7---7-----7--------16S--0--|
-----9---------9------------------|
----------------------------------|
--0----------0--------------------|
----------------------------------|


  E  E  E  E  E  E  E  E   
--------------------------|
-----------0-----------0--|
--------4-----------2-----|
-----2-----------0--------|
--------------------------|
--2-----------0-----------|


             |-3-|                 
  E  S S S S S S S E   E   E   E   
---------0---------0--15----------|
-------7---7-----7--------16S--0--|
-----9---------9------------------|
----------------------------------|
--0----------0--------------------|
----------------------------------|


  E  E  E  E  E  E  E  E     E  E  E  E  E  E  E  E   
--------------0-----------|-----------0--------------|
-----------5-----5--------|--------5-----5-----------|
--------4-----------4-----|-----4-----------4--------|
-----2--------------------|--2-----------------2-----|
--------------------------|-----------------------0--|
--2--------------------2--|--------------------------|


  E  E  E  E   E  E  E  E     E  E  E  E  E  E  E  E    
-----------0------------0--|-----0--------0--------0---|
--------5------------0-----|--------5--------5-----4\--|
-----4------------0--------|---------------------------|
---------------------------|--0--------0--------0------|
--0-----------/7-----------|--3--------3--------3------|
---------------------------|---------------------------|


     v  ^        v  ^                                  
  E  E  Q     E  E  Q       E  E  E  E  E  E  E   E    
-----0--0--------0--0----|-----0--------0---------0---|
--L--0--0--------0--0----|--------2--------2------4\--|
-----0--0--------0--0----|----------------------------|
--------0-----------0----|--2--------2--------2s--4---|
-------------/7----------|--3--------3--------3s--5---|
-------------------------|----------------------------|


     v  ^        v                                     
  E  E  Q     E  E  Q        E  E  E  E  E  E  E  E    
-----0--0--------0--------|-----0--------0--------0---|
--L--0--0--------0--------|--------5--------5-----4\--|
-----0--0--------0--------|---------------------------|
--------0-----------7\----|--0--------0--------0------|
-------------/7-----------|--3--------3--------3------|
--------------------------|---------------------------|


     v  ^       v                                        
  E  E  Q    E  E  Q       E  E  E  E   S S  S S E  E    
-----0--0-------0-------|-------------------------------|
--L--0--0-------0-------|-------------------------------|
-----0--0-------0-------|-----5--7------9---10---9--7S--|
--------0---------------|-----4--5-----11----9---7--5S--|
------------------------|-------------------------------|
-------------4-----2----|--0--------0-------------------|


  ^                  
  W                  
--0----------------||
--0----------------||
--5----------------||
--0----------------||
--3----------------||
--2----------------||




Duration Legend
---------------
W - whole
H - half
Q - quarter
E - 8th
S - 16th
T - 32nd
X - 64th
. - note dotted
|-n-|  - n-tuplets


Tablature Legend
----------------
L - tied note
x - dead note
g - grace note
(n) - ghost note
> - accentuded note
NH - natural harmonic
AH - artificial harmonic
TH - tapped harmonic
SH - semi harmonic
PH - pitch harmonic
h - hammer on
p - pull off
b - bend
br - bendRelease
pb - preBend
pbr - preBendRelease
brb - bendReleaseBend
\n/ - tremolo bar dip
\n - tremolo bar dive
-/n - tremolo bar Release up
/n\ - tremolo bar inverted dip
/n - tremolo bar return
-\n - tremolo bar Release down
S - shift slide
s - legato slide
/ -  slide into from below or out of upwards
\ -  slide into from above or out of downwards
~ - vibrato
W - wide vibrato
tr - trill
TP - tremolo picking
T - tapping
S - slap
P - pop
< - fade in
^ - brush up
v - brush down





Comments


Popular Rob Scallon tabs & chords
Anchor Tabs
Heard Again Tabs
I Should Spend More Time With You Tabs
Musical Mad Libs 1 Tabs
Poetry Taken Literally Tabs
Run On Sentences Tabs
Theater Girl Tabs
This Week 2 Tabs
Union Il Tabs
Untitled Forever Tabs


Song lyrics



↑ Back to top | Tablatures and chords are parodies/interpretations of the original songs. You may use it for private study, scholarship, research or language learning purposes only
© 2014 AZChords.com Contact us | Privacy policy | DMCA | Add/correct tabs | Request tabs | Top 50 tabs