>
 >
Skipping Stones

Skipping Stones Guitar Tabs

Rob Scallon - Skipping Stones chords, tabs, tablatures, lyrics

Guitar lessons | Add/correct | Request | Top 50 tabs Artists:  A B C D E F G H I J K L M N O P Q R S T U V W X Y Z 0-9

Skipping Stones Guitar Tabs – Rob Scallon

CD, Sheet music, Poster

Do you like Skipping Stones? Share with your friends now
Tabs
Tuning(low to high): [F A C G C E]


      S S S S S S S S S S S S S S S S    S S S S S S S S S S S S S S S S  3x
E||---5-----5-5-----5-----5-----5-----|--3-----3-3-----3---3-3-3-3--------||
C||-----4-------4-----4-----4-----4---|----2-------2-----2---------2---2--||
G||*------5-------5-----5-----5-----5-|------3-------3---------------3---*||
C||*----------------------0-----------|----------------------------------*||
A||-----------------------------0-----|------------------------0----------||
F||---0-------7-----7-----------------|--0-------5-----5---5-5---2--------||


  S S S S S S S S S S S S S S S S    S S S S S S S S S S S S S S S S  
--5-----5-5-----5-----5-----5-----|--3-----3-3-----3---3-3-3-3-------|
----4-------4-----4-----4-----4---|----2-------2-----2---------2---2-|
------5-------5-----5-----5-----5-|------3-------3---------------3---|
----------------------0-----------|--------------------------0-------|
----------------------------0-----|------------------------0---------|
--0-------7-----7-----------------|--0-------5-----5---5-5-----------|


                        NH  NH  NH  NH  NH  NH 
  S S S S S S S S S S   S   S   S   S   S   S  
----------------------------------------------|
--5-----5-----5-----0-------------------------|
----0-----0-----0-----------------------------|
------0-----0-----0---<>5-<>7-<>5-<>7-<>5-<>7-|
----------------------<>5-<>7-<>5-<>7-<>5-<>7-|
--5-----4-----2-----0-<>5-<>7-<>5-<>7-<>5-<>7-|


  S S S S S S S S S S S S S S S S  
----------------------------------|
--4-----4-----4-----9-----7---5---|
----0-----0-----0-----0-----0---0-|
------0-----0-----0-----0---------|
--------------------------5---3---|
--4-----2-----0-----7-------------|


                        NH  NH  NH  NH  NH  NH 
  S S S S S S S S S S   S   S   S   S   S   S  
----------------------------------------------|
--5-----5-----5-----0-------------------------|
----0-----0-----0-----------------------------|
------0-----0-----0---<>5-<>7-<>5-<>7-<>5-<>7-|
----------------------<>5-<>7-<>5-<>7-<>5-<>7-|
--5-----4-----2-----0-<>5-<>7-<>5-<>7-<>5-<>7-|


  S S S S S S S S S S S S S S  S S    S S S S S S S S S S S S S S E   
-----------------------------------|--------5-----6-----5-----x---0--|
--4-----4-----4-----9-----7---12---|--7-------0-----0-----0---x---0--|
----0-----0-----0-----0------------|----0-------0-----0-----0-x---0--|
------0-----0-----0-----0----------|------0---------------------x----|
--------------------------7---12---|----------------------------x----|
--4-----2-----0-----7--------------|--5-----4-----2-----0-------x----|


  S S S S S S S S S S S S S S S S    S S S S S S S S S S S S S S E   
----------------------------------|--------------5-----6-----x---0--|
--4-----4-----4-----9-----7---5---|--5-----7-------0-----0---x---0--|
----0-----0-----0-----0-----0---0-|----0-----0-------0-----0-x---0--|
------0-----0-----0-----0---------|------0-----0---------------x----|
----------------------------------|----------------------------x----|
--4-----2-----0-----7-----5---4---|--5-----4-----2-----0-------x----|


  S S S S S S S S S S S S S S S S    S S S S S S S S S S S S S S S S  
----------------------------------|--5-----5-5-----5-----5-----5-----|
--4-----4-----4-----4-----2---0---|----4-------4-----4-----4-----4---|
----0-----0-----0-----0-----0---0-|------5-------5-----5-----5-----5-|
------0-----0-----0-----0---------|----------------------0-----------|
----------------------------------|----------------------------0-----|
--4-----2-----0-----4-----2---0---|--0-------7-----7-----------------|


  S S S S S S S S S S S S S S S S    S S S S S S S S S S S S S S S S  
--3-----3-3-----3---3-3-3-3-------|--5-----5-5-----5-----5-----5-----|
----2-------2-----2---------2---2-|----4-------4-----4-----4-----4---|
------3-------3---------------3---|------5-------5-----5-----5-----5-|
----------------------------------|----------------------0-----------|
------------------------0---------|----------------------------0-----|
--0-------5-----5---5-5---2-------|--0-------7-----7-----------------|


  S S S S S S S S S S S S S S S S    S S S S S S S S S S S S S S S S  
--3-----3-3-----3---3-3-3-3---3---|--5-----5-5-----5-----5-----5-----|
----2-------2-----2---------2---2-|----4-------4-----4-----4-----4---|
------3-------3-------------------|------5-------5-----5-----5-----5-|
----------------------------------|----------------------0-----------|
------------------------0---------|----------------------------0-----|
--0-------5-----5---5-5---2---4---|--0-------7-----7-----------------|


  S S S S S S S S S S S S S S S S    S S S S S S S S S S S S S S S S  
--3-----3-3-----3---3-3-3-3-------|--5-----5-5-----5-----5-----5-----|
----2-------2-----2---------2---2-|----4-------4-----4-----4-----4---|
------3-------3---------------3---|------5-------5-----5-----5-----5-|
----------------------------------|----------------------0-----------|
------------------------0---------|----------------------------0-----|
--0-------5-----5---5-5---2-------|--0-------7-----7-----------------|


  S S S S S S S S S S S S S S S S  
--3-----3-3-----3---3-3-3-3-------|
----2-------2-----2---------2---2-|
------3-------3---------------3---|
--------------------------0-------|
------------------------0---------|
--0-------5-----5---5-5-----------|


                        NH  NH  NH  NH  NH  NH 
  S S S S S S S S S S   S   S   S   S   S   S  
----------------------------------------------|
--5-----5-----5-----0-------------------------|
----0-----0-----0-----------------------------|
------0-----0-----0---<>5-<>7-<>5-<>7-<>5-<>7-|
----------------------<>5-<>7-<>5-<>7-<>5-<>7-|
--5-----4-----2-----0-<>5-<>7-<>5-<>7-<>5-<>7-|


  S S S S S S S S S S S S S S S S  
----------------------------------|
--4-----4-----4-----9-----7---5---|
----0-----0-----0-----0-----0---0-|
------0-----0-----0-----0---------|
--------------------------5---3---|
--4-----2-----0-----7-------------|


                        NH  NH  NH  NH  NH  NH 
  S S S S S S S S S S   S   S   S   S   S   S  
----------------------------------------------|
--5-----5-----5-----0-------------------------|
----0-----0-----0-----------------------------|
------0-----0-----0---<>5-<>7-<>5-<>7-<>5-<>7-|
----------------------<>5-<>7-<>5-<>7-<>5-<>7-|
--5-----4-----2-----0-<>5-<>7-<>5-<>7-<>5-<>7-|


  S S S S S S S S S S S S E    E     S S S S S S S S S S S S S S E   
----------------------------------|--------5-----6-----5-----x---0--|
--4-----4-----4-----9-----7S--12--|--7-------0-----0-----0---x---0--|
----0-----0-----0-----0-----------|----0-------0-----0-----0-x---0--|
------0-----0-----0-----0---------|------0---------------------x----|
--------------------------7S--12--|----------------------------x----|
--4-----2-----0-----7-------------|--5-----4-----2-----0-------x----|


  S S S S S S S S S S S S S S S S    S S S S S S S S S S S S S S E   
----------------------------------|--------------5-----6-----x---0--|
--4-----4-----4-----9-----7---5---|--5-----7-------0-----0---x---0--|
----0-----0-----0-----0-----0---0-|----0-----0-------0-----0-x---0--|
------0-----0-----0-----0---------|------0-----0---------------x----|
----------------------------------|----------------------------x----|
--4-----2-----0-----7-----5---4---|--5-----4-----2-----0-------x----|


                                            NH         NH            
  S S S S S S S S S S S S S S S S    E.     E.  E.     E.   S   E.   
----------------------------------|------<>12-------<>12----0-------|
--4-----4-----4-----4-----2---0---|------<>12-------<>12----9S-12---|
----0-----0-----0-----0-----0---0-|------<>12-------<>12---10S-14---|
------0-----0-----0-----0---------|--5----------7-------------------|
----------------------------------|--5----------7-------------------|
--4-----2-----0-----4-----2---0---|--5----------7-------------------|


                                                 NH         NH            
   S  S  S S  S  S S  S S S E  S S S S    E.     E.  E.     E.   S   E.   
-----------0--------------0------0---0-|------<>12-------<>12----0-------|
--------12---12---------9---9----0---0-|------<>12-------<>12---14S-12---|
-----14---------14---10----------0---0-|------<>12-------<>12---15S-14---|
-------------------------------0---0---|--5----------7-------------------|
-------------------------------0---0---|--5----------7-------------------|
--12---------------9-----------0---0---|--5----------7-------------------|


                                           NH         NH            
  S S S S S S S S S S E  S S S S    E.     E.  E.     E.   S   E.   
--------0-----------0------0---0-|------<>12-------<>12----0-------|
------9---9-------5---5----0---0-|------<>12-------<>12----9S-12---|
----5-------5---2----------0---0-|------<>12-------<>12---10S-14---|
-------------------------0---0---|--5----------7-------------------|
-------------------------0---0---|--5----------7-------------------|
--0-----------0----------0---0---|--5----------7-------------------|


                                                   NH                    
   S  S  S S  S  S S  S S S E  S S S S      E.     E  S E  E.  S S S E   
-----------0--------------0------0---0-||-------<>12-------------0------|
--------12---12---------9---9----0---0-||-------<>12---------------0----|
-----14---------14---10----------0---0-||*------<>12-----------------0--|
-------------------------------0---0---||*--5-----------0--0------------|
-------------------------------0---0---||---5---------0-3--1------------|
--12---------------9-----------0---0---||---5---------0-4--2---2--------|


                                         NH                    
  E.  E  S S S S S S S S S S S    E.     E  S E  E.  S S S E   
------0------------0---------0-|------<>12-------------0------|
---------4-------4---4-4-5---0-|------<>12---------------0----|
-----------5---5-------------0-|------<>12-----------------0--|
--0------------------------x---|--5-----------0--0------------|
--0------------------------x---|--5---------0-3--1------------|
--0----------0-------------x---|--5---------0-4--2---2--------|


                                              NH                    
  E.  E  S  S S  S S S S S  S S S      E.     S S S E  Q     Q      
------0--------------0----------0--||------<>12--------------------|
---------9---------9---9-9-12---0--||------<>12-------------12~----|
-----------10---10--------------0-*||------<>12--------------------|
--0---------------------------x---*||--5------------0--0-----------|
--0---------------------------x----||--5----------0-3--1-----------|
--0-----------0---------------x----||--5----------0-4--2-----------|


            ^                                                  
  H         H           W                                      
------------0--------|--L----------------|-------------------||
--L---------9--------|--L----------------|-------------------||
-----------10--------|--L----------------|-------------------||
------------0--------|--L----------------|-------------------||
------------0--------|--L----------------|-------------------||
------------0--------|--L----------------|-------------------||




Duration Legend
---------------
W - whole
H - half
Q - quarter
E - 8th
S - 16th
T - 32nd
X - 64th
. - note dotted
|-n-|  - n-tuplets


Tablature Legend
----------------
L - tied note
x - dead note
g - grace note
(n) - ghost note
> - accentuded note
NH - natural harmonic
AH - artificial harmonic
TH - tapped harmonic
SH - semi harmonic
PH - pitch harmonic
h - hammer on
p - pull off
b - bend
br - bendRelease
pb - preBend
pbr - preBendRelease
brb - bendReleaseBend
\n/ - tremolo bar dip
\n - tremolo bar dive
-/n - tremolo bar Release up
/n\ - tremolo bar inverted dip
/n - tremolo bar return
-\n - tremolo bar Release down
S - shift slide
s - legato slide
/ -  slide into from below or out of upwards
\ -  slide into from above or out of downwards
~ - vibrato
W - wide vibrato
tr - trill
TP - tremolo picking
T - tapping
S - slap
P - pop
< - fade in
^ - brush up
v - brush down





Comments


Popular Rob Scallon tabs & chords
Faithful Tabs
For That Second Tabs
Iowan Bird Tabs
Iphone Beard Metal Tabs
Letters From Boston Tabs
Mutter Tabs
Ragtime Tabs
Rain Tabs
Romanza In C Standard Tabs
Run On Sentences Tabs


Song lyrics



↑ Back to top | Tablatures and chords are parodies/interpretations of the original songs. You may use it for private study, scholarship, research or language learning purposes only
© 2014 AZChords.com Contact us | Privacy policy | DMCA | Add/correct tabs | Request tabs | Top 50 tabs