» » »

Rob Scallon, Short Song Tabs (ver.1)

Artists:  A B C D E F G H I J K L M N O P Q R S T U V W X Y Z # 

Short Song Tabs (ver.1)

Rob Scallon Tabs
Rating:
0/5 (0 votes)
Short Song lessons Tabs too difficult? Try these video lessons and learn fast
                                                Short Song                                 
                              by Rob Scallon

  
                                                              
Lead Guitar

   
E||---------------------------|--------------------------|
B||---------------------------|--------------------------|
G||------8--------9-----------|-----8--------9-----------|
D||---------6--------6-----6--|--------6--------6-----6--|
A||---7--------7--------7-----|--7--------7--------7-----|
E||---------------------------|--------------------------|

    
----------------------------------|-------------------------------||
----------------------------------|--------------------------0----||
------13----------14--------------|------13----------14-----------||
----------11----------11------11--|----------11-------------------||
--12----------12----------12------|--12----------12------12-------||
----------------------------------|-------------------------------||






Rhythm Guitar
   
E||------------------------|------------------------|
B||------------------------|------------------------|
G||------------------------|------------------------|
D||------------------------|------------------------|
A||------------9s----11----|------------9s----11----|
E||--0----0----------------|--0----0----------------|

     
-----------------------|-----------------------|------------------------|
-----------------------|-----------------------|------------------------|
-----------------------|-----------------------|------------------------|
------------6s----7----|------------7s----6----|------------------------|
--0----0---------------|--0----0---------------|------------9s----11----|
-----------------------|-----------------------|--0----0----------------|

               
------------------------|-----------------------|-------------------||
------------------------|-----------------------|-------------------||
------------------------|-----------------------|-------------------||
------------------------|------------7s----6----|--6----------------||
------------9s----11----|--0----0---------------|--7----------------||
--0----0----------------|-----------------------|--5----------------||






Bass

  
G||------------------------|------------------------|
D||--2----2--2----2--2--2--|--2----2--2----2--4--6--|
A||------------------------|------------------------|
E||------------------------|------------------------|

  
------------------------|--------------------------||
--7----7--7----7--7--7--|--7----7S--11----9--9--9--||
------------------------|--------------------------||
------------------------|--------------------------||



Tablature Legend
----------------
L - tied note
x - dead note
g - grace note
(n) - ghost note
> - accentuded note
NH - natural harmonic
AH - artificial harmonic
TH - tapped harmonic
SH - semi harmonic
PH - pitch harmonic
h - hammer on
p - pull off
b - bend
br - bendRelease
pb - preBend
pbr - preBendRelease
brb - bendReleaseBend
\n/ - tremolo bar dip
\n - tremolo bar dive
-/n - tremolo bar Release up
/n\ - tremolo bar inverted dip
/n - tremolo bar return
-\n - tremolo bar Release down
S - shift slide
s - legato slide
/ -  slide into from below or out of upwards
\ -  slide into from above or out of downwards
~ - vibrato
W - wide vibrato
tr - trill
TP - tremolo picking
T - tapping
S - slap
P - pop
< - fade in
^ - brush up
v - brush down
            

comments powered by Disqus
↑ Back to top | Rob Scallon Tabs for Short Song. Lyrics for acoustic guitar and electric guitar. Tablatures and chords are parodies/interpretations of the original songs. You may use it for private study, scholarship, research or language learning purposes only