>
 >
Run On Sentences

Run On Sentences Guitar Tabs

Rob Scallon - Run On Sentences chords, tabs, tablatures, lyrics

Guitar lessons | Add/correct | Request | Top 50 tabs Artists:  A B C D E F G H I J K L M N O P Q R S T U V W X Y Z 0-9

Run On Sentences Guitar Tabs – Rob Scallon

CD, Sheet music, Poster

Do you like Run On Sentences? Share with your friends now
Tabs
main guitar, Track 2 taken straight form the guitar pro


     Q.     H        E     Q     Q     H           Q.     H        E   
E||--2------0-----------|--L-----L-----L--------|---------------------|
B||--3------1--------3--|-----------------------|--0------1--------0--|
G||------------------4--|--L--------------------|--0------2--------0--|
D||---------------------|-----------------------|---------------------|
A||--2------0-----------|--L--------------------|---------------------|
E||------------------3--|--L--------------------|--0------2--------0--|


  E  E  H.              Q.     Q    Q    E     W                 
---------------------|--2------3----5----7--|--L----------------|
-----3---------------|--3----------------5--|--L----------------|
--L------------------|----------------------|-------------------|
--L------------------|----------------------|-------------------|
---------------------|--2----------------3--|--L----------------|
--L------------------|----------------------|-------------------|


  E  S E  S E.  S Q.         E  S  E  S E.  S Q.        H        Q    Q     
-------------------------|------------------L-L------|--L------------------|
-------------------------|------------------L-L------|----------------0----|
-------------------------|---------------------------|----------------0----|
-------------------------|---------------------------|----------------0----|
--2----3----5-----5------|--10-----9----2------------|---------------------|
--3----5----7-----7------|--12----10----3------------|---------------------|


  S S S S S S S S S S S S S S S S    S S S S S S S S S S S S S S S S  
----------------------------------|----------------------------------|
--------0-----------0-----------0-|--------0-----------0-----------0-|
------0-----------0-----------0---|------0-----------0-----------0---|
----5-----------5-----------5-----|----5-----------5-----------5-----|
--3-----------3-----------2-------|--0-----------0-----------2-------|
----------------------------------|----------------------------------|


  S S S S S S S S S S S S S S S S    S S S S S S S S S S S S S S S S  
----------------------------------|----------------------------------|
--------0-----------0-----------0-|--------0-----------0-----------0-|
------0-----------0-----------0---|------0-----------0-----------0---|
----5-----------5-----------5-----|----4-----------4-----------4-----|
--3-----------3-----------2-------|--0-----------0-----------2-------|
----------------------------------|----------------------------------|


  S S S S S S S S S S S S S S S S    S S S S S S S S S S S S S S S S  
----------------------------------|----------------------------------|
--------0-----------0-----------0-|--------0-----------0-----------0-|
------0-----------0-----------0---|------0-----------0-----------0---|
----5-----------5-----------5-----|----5-----------5-----------5-----|
--3-----------3-----------2-------|--0-----------0-----------2-------|
----------------------------------|----------------------------------|


  S S S S S S S S S S S S S S S S    S S S S S S S S S S S S S S S S  
----------------------------------|----------------------------------|
--------0-----------0-----------0-|--------0-----------0-----------0-|
------0-----------0-----------0---|------0-----------0-----------0---|
----5-----------5-----------5-----|----4-----------4-----------4-----|
--3-----------3-----------2-------|--0-----------0-----------2-------|
----------------------------------|----------------------------------|


  S S S S S S S S S S S S S S S S    S S S S S S S S S S S S S S S S  
----------------------------------|----------------------------------|
--------0-----------0-----------0-|--------0-----------0-----------0-|
------0-----------0-----------0---|------0-----------0-----------0---|
----5-----------5-----------5-----|----5-----------5-----------5-----|
--3-----------3-----------2-------|--0-----------0-----------2-------|
----------------------------------|----------------------------------|


  S S S S S S S S S S S S S S S S    S S S S S S S S S S S S S S S S  
----------------------------------|----------------------------------|
--------0-----------0-----------0-|--------0-----------0-----------0-|
------0-----------0-----------0---|------0-----------0-----------0---|
----5-----------5-----------5-----|----4-----------4-----------4-----|
--3-----------3-----------2-------|--0-----------0-----------2-------|
----------------------------------|----------------------------------|


  S S S S S S S S S S S S S S S S    S S S S S S S S S S S S S S S S  
----------------------------------|----------------------------------|
--------0-----------0-----------0-|--------0-----------0-----------0-|
------0-----------0-----------0---|------0-----------0-----------0---|
----5-----------5-----------5-----|----5-----------5-----------5-----|
--3-----------3-----------2-------|--0-----------0-----------2-------|
----------------------------------|----------------------------------|


  S S S S S S S S S S S S S S S S    S S S S S S S S S S S S S S S S  
----------------------------------|----------------------------------|
--------0-----------0-----------0-|--------0-----------0-----------0-|
------0-----------0-----------0---|------0-----------0-----------0---|
----5-----------5-----------5-----|----4-----------4-----------4-----|
--3-----------3-----------2-------|--0-----------0-----------2-------|
----------------------------------|----------------------------------|


  S S S S S S S S S S S S S S S S    S S S S S S S S S S S S S S S S  
----------------------------------|----------------------------------|
--------0-----------0-----------0-|--------0-----------0-----------0-|
------0-----------0-----------0---|------0-----------0-----------0---|
----5-----------5-----------5-----|----5-----------5-----------5-----|
--3-----------3-----------2-------|--0-----------0-----------2-------|
----------------------------------|----------------------------------|


  S S S S S S S S S S S S S S S S    S S S S S S S S S S S S S S S S  
----------------------------------|----------------------------------|
--------0-----------0-----------0-|--------0-----------0-----------0-|
------0-----------0-----------0---|------0-----------0-----------0---|
----5-----------5-----------5-----|----4-----------4-----------4-----|
--3-----------3-----------2-------|--0-----------0-----------2-------|
----------------------------------|----------------------------------|


  S S S S S S S S S S S S S S S S    S S S S S S S S S S S S S S S S  
----------------------------------|----------------------------------|
--------0-----------0-----------0-|--------0-----------0-----------0-|
------0-----------0-----------0---|------0-----------0-----------0---|
----5-----------5-----------5-----|----5-----------5-----------5-----|
--3-----------3-----------2-------|--0-----------0-----------2-------|
----------------------------------|----------------------------------|


  S S S S S S S S S S S S S S S S    S S S S S S S S S S S S S S S S  
----------------------------------|----------------------------------|
--------0-----------0-----------0-|--------0-----------0-----------0-|
------0-----------0-----------0---|------0-----------0-----------0---|
----5-----------5-----------5-----|----4-----------4-----------4-----|
--3-----------3-----------2-------|--0-----------0-----------2-------|
----------------------------------|----------------------------------|


    S S S S S S S S S S S S S S S S     S S S S S S  S S S S S S  S S S S  
|-----------------------------------|-------------------------------------|
|---------0-----------0-----------0-|---------0------------0------------0-|
|*------0-----------0-----------0---|-------0------------7------------7---|
|*----5-----------5-----------7-----|-----9------------9------------9-----|
|---7-----------7-----------9-------|--10-----------10-----------10-------|
|-----------------------------------|-------------------------------------|


   S S S S S S S S S S S S S S S S    S S S S S S S S S S S S S S S S    
-----------------------------------|-----------------------------------||
---------0-----------0-----------0-|--------0-----------0-----------0--||
-------0-----------0-----------0---|------0-----------0-----------0---*||
-----9-----------7-----------5-----|----4-----------4-----------4-----*||
--10-----------9-----------7-------|--5-----------5-----------5--------||
-----------------------------------|-----------------------------------||


  S S S S S S S S S S S S S S S S    S S S S S S S S S S S S S S S S  
----------------------------------|----------------------------------|
--------0-----------0-----------0-|--------0-----------0-----------0-|
------0-----------0-----------0---|------0-----------0-----------0---|
----5-----------5-----------5-----|----5-----------5-----------5-----|
--3-----------3-----------2-------|--0-----------0-----------2-------|
----------------------------------|----------------------------------|


  S S S S S S S S S S S S S S S S    S S S S S S S S S S S S S S S S  
----------------------------------|----------------------------------|
--------0-----------0-----------0-|--------0-----------0-----------0-|
------0-----------0-----------0---|------0-----------0-----------0---|
----5-----------5-----------5-----|----4-----------4-----------4-----|
--3-----------3-----------2-------|--0-----------0-----------2-------|
----------------------------------|----------------------------------|


  S S S S S S S S S S S S S S S S    S S S S S S S S S S S S S S S S  
----------------------------------|----------------------------------|
--------0-----------0-----------0-|--------0-----------0-----------0-|
------0-----------0-----------0---|------0-----------0-----------0---|
----5-----------5-----------5-----|----5-----------5-----------5-----|
--3-----------3-----------2-------|--0-----------0-----------2-------|
----------------------------------|----------------------------------|


  S S S S S S S S S S S S S S S S    S S S S S S S S S S S S S S S S  
----------------------------------|----------------------------------|
--------0-----------0-----------0-|--------0-----------0-----------0-|
------0-----------0-----------0---|------0-----------0-----------0---|
----5-----------5-----------5-----|----4-----------4-----------4-----|
--3-----------3-----------2-------|--0-----------0-----------2-------|
----------------------------------|----------------------------------|


    S S S S S S S S S S S S S S S S     S S S S S S  S S S S S S  S S S S  
|-----------------------------------|-------------------------------------|
|---------0-----------0-----------0-|---------0------------0------------0-|
|*------0-----------0-----------0---|-------0------------7------------7---|
|*----5-----------5-----------7-----|-----9------------9------------9-----|
|---7-----------7-----------9-------|--10-----------10-----------10-------|
|-----------------------------------|-------------------------------------|


   S S S S S S S S S S S S S S S S    S S S S S S S S S S S S S S S S    
-----------------------------------|-----------------------------------||
---------0-----------0-----------0-|--------0-----------0-----------0--||
-------0-----------0-----------0---|------0-----------0-----------0---*||
-----9-----------7-----------5-----|----4-----------4-----------4-----*||
--10-----------9-----------7-------|--5-----------5-----------5--------||
-----------------------------------|-----------------------------------||




Duration Legend
---------------
W - whole
H - half
Q - quarter
E - 8th
S - 16th
T - 32nd
X - 64th
. - note dotted
|-n-|  - n-tuplets


Tablature Legend
----------------
L - tied note
x - dead note
g - grace note
(n) - ghost note
> - accentuded note
NH - natural harmonic
AH - artificial harmonic
TH - tapped harmonic
SH - semi harmonic
PH - pitch harmonic
h - hammer on
p - pull off
b - bend
br - bendRelease
pb - preBend
pbr - preBendRelease
brb - bendReleaseBend
\n/ - tremolo bar dip
\n - tremolo bar dive
-/n - tremolo bar Release up
/n\ - tremolo bar inverted dip
/n - tremolo bar return
-\n - tremolo bar Release down
S - shift slide
s - legato slide
/ -  slide into from below or out of upwards
\ -  slide into from above or out of downwards
~ - vibrato
W - wide vibrato
tr - trill
TP - tremolo picking
T - tapping
S - slap
P - pop
< - fade in
^ - brush up
v - brush down





Comments


Popular Rob Scallon tabs & chords
Algonquin Rd Tabs
Heard Again Tabs
Heart Beats Tabs
Letters From Boston Tabs
Metal Mad Libs 2 Tabs
Metal Warm Up Riff Tabs
Ottawa Tabs
Ragtime Tabs
Skipping Stones Tabs
To Zanarkand Tabs


Song lyrics



↑ Back to top | Tablatures and chords are parodies/interpretations of the original songs. You may use it for private study, scholarship, research or language learning purposes only
© 2014 AZChords.com Contact us | Privacy policy | DMCA | Add/correct tabs | Request tabs | Top 50 tabs