>
 >
Romanza In C Standard

Romanza In C Standard Guitar Tabs

Rob Scallon - Romanza In C Standard chords, tabs, tablatures, lyrics

Guitar lessons | Add/correct | Request | Top 50 tabs Artists:  A B C D E F G H I J K L M N O P Q R S T U V W X Y Z 0-9

Romanza In C Standard Guitar Tabs – Rob Scallon

CD, Sheet music, Poster

Do you like Romanza In C Standard? Share with your friends now
Tabs
                          Romanza in C standard                            


                          |--3--|  |--3--|  |--3--|   
      H        Q          E  E  E  E  E  E  E  E  E   
C ||-----------2S----||---7--------7--------7--------|
G ||-----------------||------0--------0--------0-----|
D#||-----------------||*--------0--------0--------0--|
A#||-----------------||*-----------------------------|
F ||-----------------||------------------------------|
C ||-----------------||---0--------------------------|


  |--3--|  |--3--|  |--3--|     |--3--|  |--3--|  |--3--|   
  E  E  E  E  E  E  E  E  E     E  E  E  E  E  E  E  E  E   
--7--------5--------3--------|--3--------2--------0--------|
-----0--------0--------0-----|-----0--------0--------0-----|
--------0--------0--------0--|--------0--------0--------0--|
-----------------------------|-----------------------------|
-----------------------------|-----------------------------|
--0--------------------------|--0--------------------------|


  |--3--|  |--3--|  |--3--|      |--3--|   |--3--|   |--3--|   
  E  E  E  E  E  E  E  E  E      E  E  E   E  E  E   E  E  E   
--0--------3--------7--------|--12--------12--------12--------|
-----0--------0--------0-----|------0---------0---------0-----|
--------0--------0--------0--|---------0---------0---------0--|
-----------------------------|--------------------------------|
-----------------------------|--------------------------------|
--0--------------------------|---0----------------------------|


   |--3--|   |--3--|  |--3--|     |--3--|  |--3--|  |--3--|   
   E  E  E   E  E  E  E  E  E     E  E  E  E  E  E  E  E  E   
--12--------10--------8--------|--8--------7--------5--------|
------0---------0--------0-----|-----5--------5--------5-----|
---------0---------0--------0--|--------5--------5--------5--|
-------------------------------|-----------------------------|
-------------------------------|--0--------------------------|
---0---------------------------|-----------------------------|


  |--3--|  |--3--|  |--3--|     |--3--|  |--3--|  |--3--|   
  E  E  E  E  E  E  E  E  E     E  E  E  E  E  E  E  E  E   
--5--------7--------8--------|--7--------8--------7--------|
-----5--------5--------5-----|-----7--------7--------7-----|
--------5--------5--------5--|--------8--------8--------8--|
-----------------------------|-----------------------------|
--0--------------------------|-----------------------------|
-----------------------------|--7--------------------------|


   |--3--|  |--3--|  |--3--|     |--3--|  |--3--|  |--3--|   
   E  E  E  E  E  E  E  E  E     E  E  E  E  E  E  E  E  E   
--11--------8--------7--------|--7--------5--------3--------|
------7--------7--------7-----|-----0--------0--------0-----|
---------8--------8--------8--|--------0--------0--------0--|
------------------------------|-----------------------------|
------------------------------|-----------------------------|
---7--------------------------|--0--------------------------|


  |--3--|  |--3--|  |--3--|     |--3--|  |--3--|  |--3--|   
  E  E  E  E  E  E  E  E  E     E  E  E  E  E  E  E  E  E   
--3--------2--------0--------|--2--------2--------2--------|
-----0--------0--------0-----|-----0--------0--------0-----|
--------0--------0--------0--|--------2--------2--------2--|
-----------------------------|-----------------------------|
-----------------------------|--2--------------------------|
--0--------------------------|-----------------------------|


  |--3--|  |--3--|  |--3--|     |--3--|  |--3--|  |--3--|   
  E  E  E  E  E  E  E  E  E     E  E  E  E  E  E  E  E  E   
--2--------3--------2--------|--0--------0--------0--------|
-----0--------0--------0-----|-----0--------0--------0-----|
--------2--------2--------2--|--------0--------0--------0--|
--1--------------------------|--2--------------------------|
-----------------------------|-----------2-----------------|
-----------------------------|--------------------3--------|


                      |--3--|  |--3--|  |--3--|   
  H        Q          E  E  E  E  E  E  E  E  E   
--0--------2S-----||--4--------4--------4--------|
------------------||-----0--------0--------0-----|
-----------------*||--------1--------1--------1--|
-----------------*||-----------------------------|
------------------||-----------------------------|
--0---------------||--0--------------------------|


  |--3--|  |--3--|  |--3--|     |---3--|  |--3--|  |--3--|   
  E  E  E  E  E  E  E  E  E     E   E  E  E  E  E  E  E  E   
--4--------2--------0--------|------------------------------|
-----0--------0--------0-----|--5s--4-----4--------4--------|
--------1--------1--------1--|------2--------2--------2-----|
-----------------------------|---------4--------4--------4--|
-----------------------------|--2---------------------------|
--0--------------------------|------------------------------|


  |--3--|  |--3--|  |--3--|     |--3--|  |--3--|  |--3--|   
  E  E  E  E  E  E  E  E  E     E  E  E  E  E  E  E  E  E   
-----------------------------|--9--------9--------9--------|
--4--------5--------5--------|-----7--------7--------7-----|
-----2--------2--------2-----|--------8--------8--------8--|
--------4--------4--------4--|-----------------------------|
--2--------------------------|-----------------------------|
-----------------------------|--7--------------------------|


  |--3--|   |--3--|  |--3--|     |--3--|  |--3--|  |--3--|   
  E  E  E   E  E  E  E  E  E     E  E  E  E  E  E  E  E  E   
--9--------11--------9--------|--9--------7--------7--------|
-----7---------7--------7-----|-----9--------9--------9-----|
--------8---------8--------8--|--------9--------9--------9--|
------------------------------|-----------------------------|
------------------------------|-----------------------------|
--7---------------------------|--0--------------------------|


  |--3--|  |--3--|   |--3--|      |--3--|   |--3--|   |--3--|   
  E  E  E  E  E  E   E  E  E      E  E  E   E  E  E   E  E  E   
--7--------9--------11--------|--12--------12--------12--------|
-----9--------9---------9-----|------9---------9---------9-----|
--------9--------9---------9--|---------9---------9---------9--|
------------------------------|--------------------------------|
------------------------------|--------------------------------|
--0---------------------------|---0----------------------------|


   |--3--|   |--3--|   |--3--|     |--3--|  |--3--|  |--3--|   
   E  E  E   E  E  E   E  E  E     E  E  E  E  E  E  E  E  E   
--12--------11--------10--------|--7--------7--------7--------|
------9---------9---------9-----|-----5--------5--------5-----|
---------9---------9---------9--|--------6--------6--------6--|
--------------------------------|-----------------------------|
--------------------------------|--0--------------------------|
---0----------------------------|-----------------------------|


  |--3--|  |--3--|  |--3--|     |--3--|  |--3--|  |--3--|   
  E  E  E  E  E  E  E  E  E     E  E  E  E  E  E  E  E  E   
--7--------5--------5--------|--4--------4--------4--------|
-----5--------5--------5-----|-----4--------4--------4-----|
--------6--------6--------6--|--------2--------2--------2--|
-----------------------------|-----------------------------|
--0--------------------------|--2--------------------------|
-----------------------------|-----------------------------|


  |--3--|  |--3--|  |--3--|     |--3--|  |--3--|  |--3--|   
  E  E  E  E  E  E  E  E  E     E  E  E  E  E  E  E  E  E   
--4--------5--------4--------|--0--------0--------0--------|
-----4--------4--------4-----|-----0--------0--------0-----|
--------2--------2--------2--|--------1--------1--------1--|
-----------------------------|--2--------------------------|
--2--------------------------|-----------2-----------------|
-----------------------------|--------------------4--------|


                    |--3--|  |--3--|  |--3--|   
  H        Q        E  E  E  E  E  E  E  E  E   
--0--------2S----|--7--------7--------7--------|
-----------------|-----0--------0--------0-----|
-----------------|--------0--------0--------0--|
-----------------|-----------------------------|
-----------------|-----------------------------|
--0--------------|--0--------------------------|


  |--3--|  |--3--|  |--3--|     |--3--|  |--3--|  |--3--|   
  E  E  E  E  E  E  E  E  E     E  E  E  E  E  E  E  E  E   
--7--------5--------3--------|--3--------2--------0--------|
-----0--------0--------0-----|-----0--------0--------0-----|
--------0--------0--------0--|--------0--------0--------0--|
-----------------------------|-----------------------------|
-----------------------------|-----------------------------|
--0--------------------------|--0--------------------------|


  |--3--|  |--3--|  |--3--|      |--3--|   |--3--|   |--3--|   
  E  E  E  E  E  E  E  E  E      E  E  E   E  E  E   E  E  E   
--0--------3--------7--------|--12--------12--------12--------|
-----0--------0--------0-----|------0---------0---------0-----|
--------0--------0--------0--|---------0---------0---------0--|
-----------------------------|--------------------------------|
-----------------------------|--------------------------------|
--0--------------------------|---0----------------------------|


   |--3--|   |--3--|  |--3--|     |--3--|  |--3--|  |--3--|   
   E  E  E   E  E  E  E  E  E     E  E  E  E  E  E  E  E  E   
--12--------10--------8--------|--8--------7--------5--------|
------0---------0--------0-----|-----5--------5--------5-----|
---------0---------0--------0--|--------5--------5--------5--|
-------------------------------|-----------------------------|
-------------------------------|--0--------------------------|
---0---------------------------|-----------------------------|


  |--3--|  |--3--|  |--3--|     |--3--|  |--3--|  |--3--|   
  E  E  E  E  E  E  E  E  E     E  E  E  E  E  E  E  E  E   
--5--------7--------8--------|--7--------8--------7--------|
-----5--------5--------5-----|-----7--------7--------7-----|
--------5--------5--------5--|--------8--------8--------8--|
-----------------------------|-----------------------------|
--0--------------------------|-----------------------------|
-----------------------------|--7--------------------------|


   |--3--|  |--3--|  |--3--|     |--3--|  |--3--|  |--3--|   
   E  E  E  E  E  E  E  E  E     E  E  E  E  E  E  E  E  E   
--11--------8--------7--------|--7--------5--------3--------|
------7--------7--------7-----|-----0--------0--------0-----|
---------8--------8--------8--|--------0--------0--------0--|
------------------------------|-----------------------------|
------------------------------|-----------------------------|
---7--------------------------|--0--------------------------|


  |--3--|  |--3--|  |--3--|     |--3--|  |--3--|  |--3--|   
  E  E  E  E  E  E  E  E  E     E  E  E  E  E  E  E  E  E   
--3--------2--------0--------|--2--------2--------2--------|
-----0--------0--------0-----|-----0--------0--------0-----|
--------0--------0--------0--|--------2--------2--------2--|
-----------------------------|-----------------------------|
-----------------------------|--2--------------------------|
--0--------------------------|-----------------------------|


  |--3--|  |--3--|  |--3--|     |--3--|  |--3--|  |--3--|   
  E  E  E  E  E  E  E  E  E     E  E  E  E  E  E  E  E  E   
--2--------3--------2--------|--0--------0--------0--------|
-----0--------0--------0-----|-----0--------0--------0-----|
--------2--------2--------2--|--------0--------0--------0--|
-----------------------------|--2--------------------------|
--1--------------------------|-----------2-----------------|
-----------------------------|--------------------3--------|


  ^                              
  H.                             
--0------------|---------------||
--0------------|---------------||
--0------------|---------------||
--2------------|---------------||
--2------------|---------------||
--0------------|---------------||




Duration Legend
---------------
W - whole
H - half
Q - quarter
E - 8th
S - 16th
T - 32nd
X - 64th
. - note dotted
|-n-|  - n-tuplets


Tablature Legend
----------------
L - tied note
x - dead note
g - grace note
(n) - ghost note
> - accentuded note
NH - natural harmonic
AH - artificial harmonic
TH - tapped harmonic
SH - semi harmonic
PH - pitch harmonic
h - hammer on
p - pull off
b - bend
br - bendRelease
pb - preBend
pbr - preBendRelease
brb - bendReleaseBend
\n/ - tremolo bar dip
\n - tremolo bar dive
-/n - tremolo bar Release up
/n\ - tremolo bar inverted dip
/n - tremolo bar return
-\n - tremolo bar Release down
S - shift slide
s - legato slide
/ -  slide into from below or out of upwards
\ -  slide into from above or out of downwards
~ - vibrato
W - wide vibrato
tr - trill
TP - tremolo picking
T - tapping
S - slap
P - pop
< - fade in
^ - brush up
v - brush down





Comments


Popular Rob Scallon tabs & chords
Anchor Tabs
Disposable Tabs
Faithful Tabs
For That Second Tabs
Long Since Gone Tabs
Metal Mad Libs 3 Tabs
Ottawa Tabs
Ragtime Tabs
Rain Tabs
The T-shirt Song Tabs


Song lyrics



↑ Back to top | Tablatures and chords are parodies/interpretations of the original songs. You may use it for private study, scholarship, research or language learning purposes only
© 2014 AZChords.com Contact us | Privacy policy | DMCA | Add/correct tabs | Request tabs | Top 50 tabs