>
 >
Rain

Rain Guitar Tabs

Rob Scallon - Rain chords, tabs, tablatures, lyrics

Guitar lessons | Add/correct | Request | Top 50 tabs Artists:  A B C D E F G H I J K L M N O P Q R S T U V W X Y Z 0-9

Rain Guitar Tabs – Rob Scallon

CD, Sheet music, Poster

Do you like Rain? Share with your friends now
Tabs
this song is played with a delay pedal
this is the actual playing
      PM   PM   PM   PM   PM   PM   PM   PM   
      S S  S S  S S  S S  S S  S S  S S  S S  
E||------------------------------------------|
B||------------------------------------------|
G||------------17------------------17--------|
D||-------15--------15--------15--------15---|
A||--17------------------17------------------|
E||------------------------------------------|


   PM   PM   PM   PM   PM   PM   PM   PM   
   S S  S S  S S  S S  S S  S S  S S  S S  
------------------------------------------|
------------------------------------------|
------------17--------17---17---15---14---|
-------15--------15-----------------------|
--17--------------------------------------|
------------------------------------------|


   PM   PM   PM   PM   PM   PM   PM   PM   
   S S  S S  S S  S S  S S  S S  S S  S S  
------------------------------------------|
------------------------------------------|
------------15------------------15--------|
-------14--------14--------14--------14---|
--15------------------15------------------|
------------------------------------------|


   PM   PM   PM   PM   PM   PM   PM   PM   
   S S  S S  S S  S S  S S  S S  S S  S S  
------------------------------------------|
------------------------------------------|
------------15--------15---15---14--------|
-------14--------14------------------15---|
--15--------------------------------------|
------------------------------------------|


   PM   PM   PM   PM   PM   PM   PM   PM   
   S S  S S  S S  S S  S S  S S  S S  S S  
------------------------------------------|
------------------------------------------|
------------14------------------14--------|
-------15--------15--------15--------15---|
--17------------------17------------------|
------------------------------------------|


   PM   PM   PM   PM   PM   PM   PM   PM   
   S S  S S  S S  S S  S S  S S  S S  S S  
------------------------------------------|
------------------------------------------|
------------14------------------14--------|
-------15--------15--------15--------15---|
--17------------------17------------------|
------------------------------------------|


   PM   PM   PM   PM   PM   PM   PM   PM   
   S S  S S  S S  S S  S S  S S  S S  S S  
------------------------------------------|
------------------------------------------|
-----------------14------------------14---|
------------15------------------15--------|
--13---17-------------13---17-------------|
------------------------------------------|


   PM   PM   PM   PM   PM   PM   PM   PM                                       
   S S  S S  S S  S S  S S  S S  S S  S  S    S S S S S S S S S S S S S S S S  
-------------------------------------------|----------------------------------|
-------------------------------------------|----------------------------------|
-----------------14------------------14\---|----------5---------------5-------|
------------15------------------15---------|------3-------3-------3-------3---|
--13---17-------------13---17--------------|--5---------------5---------------|
-------------------------------------------|----------------------------------|


  S S S S S S S S S S S S S S S S    S S S S S S S S S S S S S S S S  
----------------------------------|----------------------------------|
----------------------------------|----------------------------------|
----------5-------5---5---3---2---|----------3---------------3-------|
------3-------3-------------------|------2-------2-------2-------2---|
--5-------------------------------|--3---------------3---------------|
----------------------------------|----------------------------------|


  S S S S S S S S S S S S S S S S    S S S S S S S S S S S S S S S S  
----------------------------------|----------------------------------|
----------------------------------|----------------------------------|
----------3-------3---3---2-------|----------2---------------2-------|
------2-------2---------------3---|------3-------3-------3-------3---|
--3-------------------------------|--5---------------5---------------|
----------------------------------|----------------------------------|


  S S S S S S S S S S S S S S S S    S S S S S S S S S S S S S S S S  
----------------------------------|----------------------------------|
----------------------------------|----------------------------------|
----------2---------------2-------|--------------2---------------2---|
------3-------3-------3-------3---|----------3---------------3-------|
--5---------------5---------------|--1---5-----------1---5-----------|
----------------------------------|----------------------------------|


  S S S S S S S S S S S S S S S S    S S S S S S S S S S S S S S S S  
----------------------------------|----------------------------------|
----------------------------------|----------------------------------|
--------------2---------------2---|----------5---------------5-------|
----------3---------------3-------|------3-------3-------3-------3---|
--1---5-----------1---5-----------|--5---------------5---------------|
----------------------------------|----------------------------------|


  S S S S S S S S S S S S S S S S    S S S S S S S S S S S S S S S S  
----------------------------------|----------------------------------|
----------------------------------|----------------------------------|
----------5-------7---5---3---2---|----------3---------------3-------|
------3-------3-------------------|------2-------2-------2-------2---|
--5-------------------------------|--3---------------3---------------|
----------------------------------|----------------------------------|


  S S S S S S S S S S S S S S S S    S S S S S S S S S S S S S S S S  
----------------------------------|----------------------------------|
----------------------------------|----------------------------------|
----------3-------3---3---2-------|----------2---------------2-------|
------2-------2---------------3---|------3-------3-------3-------3---|
--3-------------------------------|--5---------------5---------------|
----------------------------------|----------------------------------|


  S S S S S S S S S S S S S S S S    S S S S S S S S S S S S S S S S  
----------------------------------|----------------------------------|
----------------------------------|----------------------------------|
----------2---------------2-------|--------------2---------------2---|
------3-------3-------3-------3---|----------3---------------3-------|
--5---------------5---------------|--1---5-----------1---5-----------|
----------------------------------|----------------------------------|


  S S S S S S S S S S S S S S S S    S S S S S S S S S S S S S S S S  
----------------------------------|----------------------------------|
----------------------------------|----------------------------------|
--------------2---------------2---|--------------2---------------2---|
----------3---------------3-------|----------3---------------3-------|
--1---5-----------1---5-----------|--0---5-----------0---5-----------|
----------------------------------|----------------------------------|


  S S S S S S S S S S S S S S S S    S S S S S S S S S S S S S S S S  
----------------------------------|----------------------------------|
----------------------------------|----------------------------------|
--------------2---------------2---|----------3---2-----------3---2---|
----------3---------------3-------|------3---------------3-----------|
--0---5-----------0---5-----------|----------------------------------|
----------------------------------|--3---------------3---------------|


  S S S S S S S S S S S S S S S S    S S S S S S S S S S S S S S S S  
----------------------------------|----------------------------------|
----------------------------------|----------------------------------|
----------3---2-----------3---2---|--------------2---------------2---|
------3---------------3-----------|----------3---------------3-------|
----------------------------------|------3---------------3-----------|
--3---------------3---------------|--1---------------1---------------|


  S S S S S S S S S S S S S S S S    S S S S S S S S S S S S S S S S  
----------------------------------|----------------------------------|
----------------------------------|----------------------------------|
--------------2---------------2---|----------3---2-----------3---2---|
----------3---------------3-------|------3---------------3-----------|
------3---------------3-----------|----------------------------------|
--1---------------1---------------|--3---------------3---------------|


  S S S S S S S S S S S S S S S S    S S S S S S S S S S S S S S S S  
----------------------------------|----------------------------------|
----------------------------------|----------------------------------|
----------3---2-----------3---2---|--------------2---------------2---|
------3---------------3-----------|----------3---------------3-------|
----------------------------------|------3---------------3-----------|
--3---------------3---------------|--1---------------1---------------|


  S S S S S S S S S S S S S S S S                                               
----------------------------------|----|----|----|----|----|----|----|----|----|
----------------------------------|----|----|----|----|----|----|----|----|----|
--------------2---------------2---|----|----|----|----|----|----|----|----|----|
----------3---------------3-------|----|----|----|----|----|----|----|----|----|
------3---------------3-----------|----|----|----|----|----|----|----|----|----|
--1---------------1---------------|----|----|----|----|----|----|----|----|----|


----|----|----|----|----|----|----|----|----||
----|----|----|----|----|----|----|----|----||
----|----|----|----|----|----|----|----|----||
----|----|----|----|----|----|----|----|----||
----|----|----|----|----|----|----|----|----||
----|----|----|----|----|----|----|----|----||




Duration Legend
---------------
W - whole
H - half
Q - quarter
E - 8th
S - 16th
T - 32nd
X - 64th
. - note dotted
|-n-|  - n-tuplets


Tablature Legend
----------------
L - tied note
x - dead note
g - grace note
(n) - ghost note
> - accentuded note
NH - natural harmonic
AH - artificial harmonic
TH - tapped harmonic
SH - semi harmonic
PH - pitch harmonic
h - hammer on
p - pull off
b - bend
br - bendRelease
pb - preBend
pbr - preBendRelease
brb - bendReleaseBend
\n/ - tremolo bar dip
\n - tremolo bar dive
-/n - tremolo bar Release up
/n\ - tremolo bar inverted dip
/n - tremolo bar return
-\n - tremolo bar Release down
S - shift slide
s - legato slide
/ -  slide into from below or out of upwards
\ -  slide into from above or out of downwards
~ - vibrato
W - wide vibrato
tr - trill
TP - tremolo picking
T - tapping
S - slap
P - pop
< - fade in
^ - brush up
v - brush down





Comments


Popular Rob Scallon tabs & chords
For That Second Tabs
I Should Spend More Time With You Tabs
Letters From Boston Tabs
Musical Mad Libs 1 Tabs
Ragtime Tabs
Romanza In C Standard Tabs
Somewhere To Run To Tabs
The T-shirt Song Tabs
Theater Girl Tabs
Time Spent Wondering Tabs


Song lyrics



↑ Back to top | Tablatures and chords are parodies/interpretations of the original songs. You may use it for private study, scholarship, research or language learning purposes only
© 2014 AZChords.com Contact us | Privacy policy | DMCA | Add/correct tabs | Request tabs | Top 50 tabs