>
 >
Ragtime

Ragtime Guitar Tabs

Rob Scallon - Ragtime chords, tabs, tablatures, lyrics

Guitar lessons | Add/correct | Request | Top 50 tabs Artists:  A B C D E F G H I J K L M N O P Q R S T U V W X Y Z 0-9

Ragtime Guitar Tabs – Rob Scallon

CD, Sheet music, Poster

Do you like Ragtime? Share with your friends now
Tabs
Track 1 (Capo 5)
     E  E  E  E  E  E  E  E     E  E  E  E  E  E  E  E   
E||--------------------------|--------------------------|
B||-----0--------------------|-----0--------------------|
G||--0-----0-----------0-----|--0-----0-----------0-----|
D||--2--------2-----2-----2--|--2--------2-----2-----2--|
A||--3-----------3-----------|--3-----------3-----------|
E||--5-----------------------|--5-----------------------|


  E  E  E  E  E  E  E  E     E  E  E  E  E  E  E  E   
--------------------------|--------------------------|
-----0--------------------|-----0--------------------|
--0-----0-----------0-----|--0-----0-----------0-----|
--2--------2-----2-----2--|--2--------2-----2-----2--|
--3-----------3-----------|--3-----------3-----------|
--3-----------------------|--3-----------------------|


  E  E  E  E  E  E  E  E     E  E  E  E  E  E  E  E   
--------------------------|--------------------------|
-----0--------------------|-----0--------------------|
--0-----0-----------0-----|--0-----0-----------0-----|
--2--------2-----2-----2--|--2--------2-----2-----2--|
--3-----------3-----------|--3-----------3-----------|
--5-----------------------|--5-----------------------|


  E  E  E  E  E  E  E  E     E  E  E  E  E  E  E  E   
--------------------------|--------------------------|
-----0--------------------|-----0--------------------|
--0-----0-----------0-----|--0-----0-----------0-----|
--2--------2-----2-----2--|--2--------2-----2-----2--|
--3-----------3-----------|--3-----------3-----------|
--3-----------------------|--3-----------------------|


  PM PM PM    PM PM PM    PM PM      
  S  S  E  E  S  S  E  E  S  S  S S  
------------------------------------|
-----------0-----------0------------|
-----------0-----------0--------0---|
-----------2-----------2----------2-|
--3--3--3--3--3--3--3--3--3--3------|
--5--5--5--5--5--5--5--5--5--5------|


  PM PM PM    PM PM PM    PM PM      
  S  S  E  E  S  S  E  E  S  S  S S  
------------------------------------|
-----------0-----------0------------|
-----------0-----------0--------0---|
-----------2-----------2----------2-|
--3--3--3--3--3--3--3--3--3--3------|
--5--5--5--5--5--5--5--5--5--5------|


  PM PM PM    PM PM PM    PM PM      
  S  S  E  E  S  S  E  E  S  S  S S  
------------------------------------|
-----------0-----------0------------|
-----------0-----------0--------0---|
-----------2-----------2----------2-|
--3--3--3--3--3--3--3--3--3--3------|
--3--3--3--3--3--3--3--3--3--3------|


  PM PM PM    PM PM     PM PM            
  S  S  E  E  S  S  S S S  S  S S S  S   
----------------------------------------|
-----------0--------0-------------------|
-----------0----------0-------0---------|
-----------2--------------------2-------|
--3--3--3--3--3--3------3--3------3-(0)-|
--3--3--3--3--3--3------3--3------------|


  PM PM PM    PM PM PM    PM PM      
  S  S  E  E  S  S  E  E  S  S  S S  
------------------------------------|
-----------0-----------0------------|
-----------0-----------0--------0---|
-----------2-----------2----------2-|
--3--3--3--3--3--3--3--3--3--3------|
--5--5--5--5--5--5--5--5--5--5------|


  PM PM PM    PM PM PM    PM PM      
  S  S  E  E  S  S  E  E  S  S  S S  
------------------------------------|
-----------0-----------0------------|
-----------0-----------0--------0---|
-----------2-----------2----------2-|
--3--3--3--3--3--3--3--3--3--3------|
--5--5--5--5--5--5--5--5--5--5------|


  PM PM PM    PM PM PM    PM PM      
  S  S  E  E  S  S  E  E  S  S  S S  
------------------------------------|
-----------0-----------0------------|
-----------0-----------0--------0---|
-----------2-----------2----------2-|
--3--3--3--3--3--3--3--3--3--3------|
--3--3--3--3--3--3--3--3--3--3------|


  PM PM PM    PM PM     PM PM                                       
  S  S  E  E  S  S  S S S  S  S S S  S     Q.     Q    S E  E   S   
----------------------------------------|--------------------------|
-----------0--------0-------------------|--------------------------|
-----------0----------0-------0---------|--------------------------|
-----------2--------------------2-------|--3------2----------------|
--3--3--3--3--3--3------3--3------3-(0)-|--3------2------2--3--(3)-|
--3--3--3--3--3--3------3--3------------|--1------0----0-----------|


  Q.     Q    S E  E.     Q.     Q    S E  E   S   
-----------------------|--------------------------|
-----------------------|--------------------------|
-----------------------|--------------------------|
--2------2-------------|--3------2----------------|
--3------3------3--2---|--3------2------2--3--(3)-|
--5------3----0--------|--1------0----0-----------|


  E  E  S S Q    S E  E  S  
---------------------------|
--0--0--0-0-0--------------|
--0--0--0-0-0--------------|
--2--2--2-2-2--------------|
--3--3--3-3-3------3--2--0-|
--5---------3----0---------|


  PM PM PM   PM PM PM   PM   PM PM PM   PM         
  T  T  S  S T  T  S  S S  S T  T  S  S S  E.   S  
--------------------------------------------------|
--------------------------------------------------|
--------------------------------------------------|
-----------2--------------------------------------|
----------------------3----2----------3----2p---0-|
--1--1--1----1--1--1----1----1--1--1----1---------|


  PM PM PM   PM PM PM   PM   PM PM PM   PM         
  T  T  S  S T  T  S  S S  S T  T  S  S S  E.   S  
--------------------------------------------------|
--------------------------------------------------|
--------------------------------------------------|
-----------2--------------------------------------|
----------------------3----2----------3----2p---0-|
--0--0--0----0--0--0----0----0--0--0----0---------|


  PM PM PM   PM PM PM   PM   PM PM PM   PM         
  T  T  S  S T  T  S  S S  S T  T  S  S S  E.   S  
--------------------------------------------------|
--------------------------------------------------|
--------------------------------------------------|
-----------2--------------------------------------|
----------------------3----2----------3----2p---0-|
--1--1--1----1--1--1----1----1--1--1----1---------|


  PM PM PM   PM PM PM   PM   PM PM PM   PM         
  T  T  S  S T  T  S  S S  S T  T  S  S S  E.   S  
--------------------------------------------------|
--------------------------------------------------|
--------------------------------------------------|
-----------2--------------------------------------|
----------------------3----2----------3----2p---0-|
--0--0--0----0--0--0----0----0--0--0----0---------|


  PM PM PM   PM PM PM   PM   PM PM PM   PM          
  T  T  S  S T  T  S  S S  S T  T  S  S S  S S S S  
---------------------------------------------------|
---------------------------------------------------|
---------------------------------------------------|
-----------2---------------------------------------|
----------------------3----2----------3----2-0-2-3-|
--1--1--1----1--1--1----1----1--1--1----1----------|


  PM PM PM   PM PM PM   PM   PM PM PM   PM         
  T  T  S  S T  T  S  S S  S T  T  S  S S  E.   S  
--------------------------------------------------|
--------------------------------------------------|
--------------------------------------------------|
-----------2--------------------------------------|
----------------------3----2----------3----2p---0-|
--0--0--0----0--0--0----0----0--0--0----0---------|


  PM PM PM   PM PM PM   PM   PM PM PM   PM          
  T  T  S  S T  T  S  S S  S T  T  S  S S  S S S S  
---------------------------------------------------|
---------------------------------------------------|
---------------------------------------------------|
-----------2---------------------------------------|
----------------------3----2----------3----2-0-2-3-|
--1--1--1----1--1--1----1----1--1--1----1----------|


  PM PM PM   PM PM PM   PM   PM PM PM   PM         
  T  T  S  S T  T  S  S S  S T  T  S  S S  E.   S  
--------------------------------------------------|
--------------------------------------------------|
--------------------------------------------------|
-----------2--------------------------------------|
----------------------3----2----------3----2p---0-|
--0--0--0----0--0--0----0----0--0--0----0---------|


  T T S S S S T T T T T T T T S S S S T T T T T T  
--------------------------------------------------|
--------------------------------------------------|
--------------------------------------------------|
------------2-----------------------2-------------|
--------3-----------------------3-----------------|
--5-5-5---5---5-5-5-5-5-5-4-4-4---4---4-4-4-4-4-4-|


  T T S S S S T T T T T T T T S S S S T T T T T T  
--------------------------------------------------|
--------------------------------------------------|
--------------------------------------------------|
------------2-----------------------2-------------|
--------3-----------------------3-----------------|
--3-3-3---3---3-3-3-3-3-3-2-2-2---2---2-2-2-2-2-2-|


  T T S S T T S S T T S S T T S E  T T T T T T  
-----------------------------------------------|
-----------------------------------------------|
-----------------------------------------------|
------------------------2-------2--------------|
--------3-------3---------------3--------------|
--1-1-1---1-1-1---1-1-1---1-1-1----1-1-1-1-1-1-|


  T T S S T T S S T T S S T T S S. T T T T T T T  
-------------------------------------------------|
-------------------------------------------------|
-------------------------------------------------|
--------2-------2-------2-------2----------------|
--------2-------2-------2-------2----------------|
--0-0-0-0-0-0-0-0-0-0-0-0-0-0-0-0--L-0-0-0-0-0-0-|


  PM PM PM    PM PM PM    PM PM      
  S  S  E  E  S  S  E  E  S  S  S S  
------------------------------------|
-----------0-----------0------------|
-----------0-----------0--------0---|
-----------2-----------2----------2-|
--3--3--3--3--3--3--3--3--3--3------|
--5--5--5--5--5--5--5--5--5--5------|


  PM PM PM    PM PM PM    PM PM      
  S  S  E  E  S  S  E  E  S  S  S S  
------------------------------------|
-----------0-----------0------------|
-----------0-----------0--------0---|
-----------2-----------2----------2-|
--3--3--3--3--3--3--3--3--3--3------|
--5--5--5--5--5--5--5--5--5--5------|


  PM PM PM    PM PM PM    PM PM      
  S  S  E  E  S  S  E  E  S  S  S S  
------------------------------------|
-----------0-----------0------------|
-----------0-----------0--------0---|
-----------2-----------2----------2-|
--3--3--3--3--3--3--3--3--3--3------|
--3--3--3--3--3--3--3--3--3--3------|


  PM PM PM    PM PM     PM PM            
  S  S  E  E  S  S  S S S  S  S S S  S   
----------------------------------------|
-----------0--------0-------------------|
-----------0----------0-------0---------|
-----------2--------------------2-------|
--3--3--3--3--3--3------3--3------3-(0)-|
--3--3--3--3--3--3------3--3------------|


  PM PM PM    PM PM PM    PM PM      
  S  S  E  E  S  S  E  E  S  S  S S  
------------------------------------|
-----------0-----------0------------|
-----------0-----------0--------0---|
-----------2-----------2----------2-|
--3--3--3--3--3--3--3--3--3--3------|
--5--5--5--5--5--5--5--5--5--5------|


  PM PM PM    PM PM PM    PM PM      
  S  S  E  E  S  S  E  E  S  S  S S  
------------------------------------|
-----------0-----------0------------|
-----------0-----------0--------0---|
-----------2-----------2----------2-|
--3--3--3--3--3--3--3--3--3--3------|
--5--5--5--5--5--5--5--5--5--5------|


  PM PM PM    PM PM PM    PM PM      
  S  S  E  E  S  S  E  E  S  S  S S  
------------------------------------|
-----------0-----------0------------|
-----------0-----------0--------0---|
-----------2-----------2----------2-|
--3--3--3--3--3--3--3--3--3--3------|
--3--3--3--3--3--3--3--3--3--3------|


  PM PM PM    PM PM     PM PM                                       
  S  S  E  E  S  S  S S S  S  S S S  S     Q.     Q    S E  E   S   
----------------------------------------|--------------------------|
-----------0--------0-------------------|--------------------------|
-----------0----------0-------0---------|--------------------------|
-----------2--------------------2-------|--3------2----------------|
--3--3--3--3--3--3------3--3------3-(0)-|--3------2------2--3--(3)-|
--3--3--3--3--3--3------3--3------------|--1------0----0-----------|


  Q.     Q    S E  E.     Q.     Q    S E  E   S   
-----------------------|--------------------------|
-----------------------|--------------------------|
-----------------------|--------------------------|
--2------2-------------|--3------2----------------|
--3------3------3--2---|--3------2------2--3--(3)-|
--5------3----0--------|--1------0----0-----------|


  E  E  S S Q    S E  E  S    E  E  E  E  E  E  E  E   
---------------------------|--------------------------|
--0--0--0-0-0--------------|-----0--------------------|
--0--0--0-0-0--------------|--0-----0-----------0-----|
--2--2--2-2-2--------------|--2--------2-----2-----2--|
--3--3--3-3-3------3--2--0-|--3-----------3-----------|
--5---------3----0---------|--5-----------------------|


  E  E  E  E  E  E  E  E     E  E  E  E  E  E  E  E   
--------------------------|--------------------------|
-----0--------------------|-----0--------------------|
--0-----0-----------0-----|--0-----0-----------0-----|
--2--------2-----2-----2--|--2--------2-----2-----2--|
--3-----------3-----------|--3-----------3-----------|
--5-----------------------|--3-----------------------|


  E  E  E  E  E  E  E  E     E  E  E  E  E  E  E  E   
--------------------------|--------------------------|
-----0--------------------|-----0--------------------|
--0-----0-----------0-----|--0-----0-----------0-----|
--2--------2-----2-----2--|--2--------2-----2-----2--|
--3-----------3-----------|--3-----------3-----------|
--3-----------------------|--5-----------------------|


  E  E  E  E  E  E  E  E     E  E  E  E  E  E  E  E   
--------------------------|--------------------------|
-----0--------------------|-----0--------------------|
--0-----0-----------0-----|--0-----0-----------0-----|
--2--------2-----2-----2--|--2--------2-----2-----2--|
--3-----------3-----------|--3-----------3-----------|
--5-----------------------|--3-----------------------|


  E  E  E  E  E  E  E  E   
--------------------------|
-----0--------------------|
--0-----0-----------0-----|
--2--------2-----2-----2--|
--3-----------3-----------|
--3-----------------------|


  PM PM PM   PM PM PM   PM   PM PM PM   PM         
  T  T  S  S T  T  S  S S  S T  T  S  S S  E.   S  
--------------------------------------------------|
--------------------------------------------------|
--------------------------------------------------|
-----------2--------------------------------------|
----------------------3----2----------3----2p---0-|
--1--1--1----1--1--1----1----1--1--1----1---------|


  PM PM PM   PM PM PM   PM   PM PM PM   PM         
  T  T  S  S T  T  S  S S  S T  T  S  S S  E.   S  
--------------------------------------------------|
--------------------------------------------------|
--------------------------------------------------|
-----------2--------------------------------------|
----------------------3----2----------3----2p---0-|
--0--0--0----0--0--0----0----0--0--0----0---------|


  PM PM PM   PM PM PM   PM   PM PM PM   PM         
  T  T  S  S T  T  S  S S  S T  T  S  S S  E.   S  
--------------------------------------------------|
--------------------------------------------------|
--------------------------------------------------|
-----------2--------------------------------------|
----------------------3----2----------3----2p---0-|
--1--1--1----1--1--1----1----1--1--1----1---------|


  PM PM PM   PM PM PM   PM   PM PM PM   PM         
  T  T  S  S T  T  S  S S  S T  T  S  S S  E.   S  
--------------------------------------------------|
--------------------------------------------------|
--------------------------------------------------|
-----------2--------------------------------------|
----------------------3----2----------3----2p---0-|
--0--0--0----0--0--0----0----0--0--0----0---------|


  PM PM PM   PM PM PM   PM   PM PM PM   PM          
  T  T  S  S T  T  S  S S  S T  T  S  S S  S S S S  
---------------------------------------------------|
---------------------------------------------------|
---------------------------------------------------|
-----------2---------------------------------------|
----------------------3----2----------3----2-0-2-3-|
--1--1--1----1--1--1----1----1--1--1----1----------|


  PM PM PM   PM PM PM   PM   PM PM PM   PM         
  T  T  S  S T  T  S  S S  S T  T  S  S S  E.   S  
--------------------------------------------------|
--------------------------------------------------|
--------------------------------------------------|
-----------2--------------------------------------|
----------------------3----2----------3----2p---0-|
--0--0--0----0--0--0----0----0--0--0----0---------|


  PM PM PM   PM PM PM   PM   PM PM PM   PM          
  T  T  S  S T  T  S  S S  S T  T  S  S S  S S S S  
---------------------------------------------------|
---------------------------------------------------|
---------------------------------------------------|
-----------2---------------------------------------|
----------------------3----2----------3----2-0-2-3-|
--1--1--1----1--1--1----1----1--1--1----1----------|


  PM PM PM   PM PM PM   PM   PM PM PM   PM         
  T  T  S  S T  T  S  S S  S T  T  S  S S  E.   S  
--------------------------------------------------|
--------------------------------------------------|
--------------------------------------------------|
-----------2--------------------------------------|
----------------------3----2----------3----2p---0-|
--0--0--0----0--0--0----0----0--0--0----0---------|


  T T S S S S T T T T T T T T S S S S T T T T T T  
--------------------------------------------------|
--------------------------------------------------|
--------------------------------------------------|
------------2-----------------------2-------------|
--------3-----------------------3-----------------|
--5-5-5---5---5-5-5-5-5-5-4-4-4---4---4-4-4-4-4-4-|


  T T S S S S T T T T T T T T S S S S T T T T T T  
--------------------------------------------------|
--------------------------------------------------|
--------------------------------------------------|
------------2-----------------------2-------------|
--------3-----------------------3-----------------|
--3-3-3---3---3-3-3-3-3-3-2-2-2---2---2-2-2-2-2-2-|


  T T S S T T S S T T S S T T S E  T T T T T T  
-----------------------------------------------|
-----------------------------------------------|
-----------------------------------------------|
------------------------2-------2--------------|
--------3-------3---------------3--------------|
--1-1-1---1-1-1---1-1-1---1-1-1----1-1-1-1-1-1-|


  T T S S T T S S T T S S T T S S. T T T T T T T  
-------------------------------------------------|
-------------------------------------------------|
-------------------------------------------------|
--------2-------2-------2-------2----------------|
--------2-------2-------2-------2----------------|
--0-0-0-0-0-0-0-0-0-0-0-0-0-0-0-0--L-0-0-0-0-0-0-|


  T T S S S S T T T T T T T T S S S S T T T T T T  
--------------------------------------------------|
--------------------------------------------------|
--------------------------------------------------|
------------2-----------------------2-------------|
--------3-----------------------3-----------------|
--5-5-5---5---5-5-5-5-5-5-4-4-4---4---4-4-4-4-4-4-|


  T T S S S S T T T T T T T T S S S S T T T T T T  
--------------------------------------------------|
--------------------------------------------------|
--------------------------------------------------|
------------2-----------------------2-------------|
--------3-----------------------3-----------------|
--3-3-3---3---3-3-3-3-3-3-2-2-2---2---2-2-2-2-2-2-|


  T T S S T T S S T T S S T T S E  T T T T T T  
-----------------------------------------------|
-----------------------------------------------|
-----------------------------------------------|
------------------------2-------2--------------|
--------3-------3---------------3--------------|
--1-1-1---1-1-1---1-1-1---1-1-1----1-1-1-1-1-1-|


  T T S S T T S S T T S S T T S S. T T T T T T T  
-------------------------------------------------|
-------------------------------------------------|
-------------------------------------------------|
--------2-------2-------2-------2----------------|
--------2-------2-------2-------2----------------|
--0-0-0-0-0-0-0-0-0-0-0-0-0-0-0-0--L-0-0-0-0-0-0-|


  T T S S T T S S T T S S T T S S. T T T T T T T    W                 
-------------------------------------------------|-------------------|
-------------------------------------------------|--0----------------|
-------------------------------------------------|--0----------------|
--------2-------2-------2-------2----------------|--2----------------|
--------2-------2-------2-------2----------------|--3----------------|
--0-0-0-0-0-0-0-0-0-0-0-0-0-0-0-0--L-0-0-0-0-0-0-|--5----------------|


  W                  
-------------------||
--L----------------||
-------------------||
-------------------||
-------------------||
-------------------||




Duration Legend
---------------
W - whole
H - half
Q - quarter
E - 8th
S - 16th
T - 32nd
X - 64th
. - note dotted
|-n-|  - n-tuplets


Tablature Legend
----------------
L - tied note
x - dead note
g - grace note
(n) - ghost note
> - accentuded note
NH - natural harmonic
AH - artificial harmonic
TH - tapped harmonic
SH - semi harmonic
PH - pitch harmonic
h - hammer on
p - pull off
b - bend
br - bendRelease
pb - preBend
pbr - preBendRelease
brb - bendReleaseBend
\n/ - tremolo bar dip
\n - tremolo bar dive
-/n - tremolo bar Release up
/n\ - tremolo bar inverted dip
/n - tremolo bar return
-\n - tremolo bar Release down
S - shift slide
s - legato slide
/ -  slide into from below or out of upwards
\ -  slide into from above or out of downwards
~ - vibrato
W - wide vibrato
tr - trill
TP - tremolo picking
T - tapping
S - slap
P - pop
< - fade in
^ - brush up
v - brush down





Comments


Popular Rob Scallon tabs & chords
Le Gentil Bass Tabs
Procrastination Bassin Bass Tabs
April Is The Cruelest Month Tabs
Letters From Boston Tabs
Musical Mad Libs 1 Tabs
Ottawa Tabs
Short Song Tabs
The T-shirt Song Tabs
To Zanarkand Tabs
Union Il Tabs


Song lyrics



↑ Back to top | Tablatures and chords are parodies/interpretations of the original songs. You may use it for private study, scholarship, research or language learning purposes only
© 2014 AZChords.com Contact us | Privacy policy | DMCA | Add/correct tabs | Request tabs | Top 50 tabs