» » »

Poetry Taken Literally Tabs (ver.1)

Artists:  A B C D E F G H I J K L M N O P Q R S T U V W X Y Z # 

Poetry Taken Literally Tabs (ver.1)

Rob Scallon
Rating:
0/5 (0 votes)

Hard to play? Try these video lessons and learn fast.
                Here are the two guitar tracks to Poetry Taken Literall


      Q     Q     Q     Q        Q     H.            
E||--------------------------|----------------------|
B||--------------15----------|--------15------------|
G||--14----14----------14----|--14------------------|
D||--16----16----------16----|--16------------------|
A||--------------------------|----------------------|
E||--------------------------|----------------------|


   Q     Q     Q     Q        T   T E.   Q     H         
--------------------------|-----------------------------|
--------------15----------|--17s-19-----17----15--------|
--12----12----------12----|-----------------------------|
--14----14----------14----|-----------------------------|
--------------------------|-----------------------------|
--------------------------|-----------------------------|


   Q     Q     Q     Q        Q     H.            
--------------------------|----------------------|
--------------15----------|--------15------------|
--12----12----------12----|--12------------------|
--12----12----------12----|--12------------------|
--------------------------|----------------------|
--------------------------|----------------------|


   Q     Q     Q     Q        Q     H.             
--------------------------|----------------------||
--------------15----------|--------15------------||
--11----11----------11----|--11------------------||
--12----12----------12----|--12------------------||
--------------------------|----------------------||
--------------------------|----------------------||

here is the second guitar track
there are two different versions of this riff on here
they switch off during the song
      W                   H         H            W                 
E||--------------------|----------------------|-------------------|
B||--------------------|----------------------|-------------------|
G||--------------------|----------------------|-------------------|
D||--------------------|----------------------|-------------------|
A||---9----------------|------------9---------|--2----------------|
E||--10----------------|-----------10---------|--3----------------|


  H        H           W                   H        H         
--------------------|-------------------|--------------------|
--------------------|-------------------|--------------------|
--------------------|-------------------|--------------------|
--------------------|-------------------|--------------------|
-----------2--------|--4----------------|-----------4--------|
-----------3--------|--5----------------|-----------5--------|

                                        (during chorus version)
  W                   W                    W                 
-------------------|-------------------|--------------------|
-------------------|-------------------|--------------------|
-------------------|-------------------|--------------------|
-------------------|-------------------|---7----------------|
--5----------------|-------------------|---9----------------|
--5----------------|-------------------|--10----------------|


  H         H            W                   H        H         
----------------------|-------------------|--------------------|
----------------------|-------------------|--------------------|
----------------------|-------------------|--------------------|
------------7---------|--0----------------|-----------0--------|
------------9---------|--2----------------|-----------2--------|
-----------10---------|--3----------------|-----------3--------|


  W                   H        H           W                 
-------------------|--------------------|-------------------|
-------------------|--------------------|-------------------|
-------------------|--------------------|-------------------|
--2----------------|-----------5--------|--4----------------|
--4----------------|--------------------|--5----------------|
--5----------------|--------------------|--5----------------|
            
Hard to play? Try these video lessons and learn fast. | Correct




comments powered by Disqus
↑ Back to top | Tablatures and chords are parodies/interpretations of the original songs. You may use it for private study, scholarship, research or language learning purposes only