>
 >
Mutter

Mutter Guitar Tabs

Rob Scallon - Mutter chords, tabs, tablatures, lyrics

Guitar lessons | Add/correct | Request | Top 50 tabs Artists:  A B C D E F G H I J K L M N O P Q R S T U V W X Y Z 0-9

Mutter Guitar Tabs – Rob Scallon

CD, Sheet music, Poster

Do you like Mutter? Share with your friends now
Tabs
                                  Mutter                                   

                              by Rob Scallon




               NH      NH      NH         NH      NH            
       Q       Q       Q       Q          Q       H.            
E ||--------------------------------|----------<>12------------|
B ||--------------------------------|--<>12--------------------|
G#||*-----------------------<>12----|--------------------------|
C#||*---------------<>12------------|--------------------------|
A ||---0----------------------------|--------------------------|
E ||--------<>12--------------------|--------------------------|


                              NH      NH      NH         NH                
  W                   Q       Q       Q       Q          W                 
--L----------------|-------------------------------|----------------------|
-------------------|-------------------------------|--<>12----------------|
-------------------|-----------------------<>12----|----------------------|
-------------------|---------------<>12------------|----------------------|
-------------------|--0----------------------------|----------------------|
-------------------|-------<>12--------------------|----------------------|


     NH                    NH     NH     NH     NH    
     W                     Q      Q      Q      Q     
--<>12----------------|------------------------------|
----------------------|------------------------------|
----------------------|-----------------------<>7----|
----------------------|----------------<>7-----------|
----------------------|--<>5-------------------------|
----------------------|---------<>7------------------|


    NH     NH                                      NH     NH         NH    
    Q      H.              W                       Q      H          Q     
---------<>7------------|--L-----------------||---------<>7---------------|
--<>7-------------------|--------------------||--<>7----------------------|
------------------------|-------------------*||--------------------<>5----|
------------------------|-------------------*||---------------------------|
------------------------|--------------------||---------------------------|
------------------------|--------------------||---------------------------|


                NH   NH              NH      NH      NH    
  H        E    E    Q       Q       Q       Q       Q     
--------------------------|-------------------------------|
--------------------------|-------------------------------|
--L--------L--------------|-----------------------<>12----|
--------------<>5--<>7----|---------------<>12------------|
--------------------------|--0----------------------------|
--------------------------|-------<>12--------------------|


     NH      NH          ^                         
     Q       H           Q       W                 
----------<>12--------<>12----|--L----------------|
--<>12----------------<>12----|--L----------------|
----------------------<>12----|--L----------------|
----------------------<>12----|--L----------------|
------------------------------|-------------------|
------------------------------|-------------------|


    ^                                           
    E  E  E  E  E  Q    E     W                 
----4--4--4--4--4--4----4--|--L----------------|
--<>5----------------------|-------------------|
--<>5----------------------|-------------------|
--<>5----------------------|-------------------|
--<>5----------------------|-------------------|
--<>5----------------------|-------------------|


    ^                                               
    E   E  E  E  E  Q    E     Q    H         Q     
----5s--7--7--7--7--7----7--|--L----5s--------4----|
--<>7-----------------------|----------------------|
--<>7-----------------------|----------------------|
--<>7-----------------------|----------------------|
--<>7-----------------------|----------------------|
--<>7-----------------------|----------------------|


    ^                                                
    E  E  E  E  E  Q    E     E   H        E   Q     
----4--4--4--4--4--4----4--|--Ls--0--------5s--7----|
--<>5----------------------|------------------------|
--<>5----------------------|------------------------|
--<>5----------------------|------------------------|
--<>5----------------------|------------------------|
--<>5----------------------|------------------------|


    ^                                           
    E  E  E  E  E  Q    E     W                 
----7--7--7--7--7--7----7--|--L----------------|
--<>7----------------------|-------------------|
--<>7----------------------|-------------------|
--<>7----------------------|-------------------|
--<>7----------------------|-------------------|
--<>7----------------------|-------------------|


    ^                                                
    E   E   E   E   E   Q    E     W                 
---11--11--11--11--11s--9----7--|--L----------------|
--<>7-------7---7---7s--5----4--|--L----------------|
--<>7---------------------------|-------------------|
--<>7---------------------------|-------------------|
--<>7---------------------------|-------------------|
--<>7---------------------------|-------------------|


    ^                                                
    E  E  E  E  E   Q    E     Q    E   H        E   
----9--9--9--9--9s--7----5--|--L----LS--4--------L--|
--<>5-----5--5--5---4----2--|--L----LS--0--------L--|
--<>5-----------------------|-----------------------|
--<>5-----------------------|-----------------------|
--<>5-----------------------|-----------------------|
--<>5-----------------------|-----------------------|


    ^                                                    
    E   E   E   E   E   Q     E     E   H.           E   
---11--11--11--11--11s--9----14--|--L--12------------L--|
--<>7-------7---7---7s--5----10--|--L---9------------L--|
--<>7----------------------------|----------------------|
--<>7----------------------------|----------------------|
--<>7----------------------------|----------------------|
--<>7----------------------------|----------------------|


     ^                                                 
     E   E   E   E   E   Q     E     W                 
----12--12--12--12--12--12----12--|--L----------------|
--<>12-------9---9---9---9-----9--|--L----------------|
--<>12----------------------------|-------------------|
--<>12----------------------------|-------------------|
--<>12----------------------------|-------------------|
--<>12----------------------------|-------------------|


  E  E  E  E  E   Q    E      E  H        E   Q     
--0--0--0--0--0---0----0---|--L-----------5s--7----|
--4--4--4--4--4h--5----5S--|--L--0--------7s--9----|
--5--5--5--5--5--------5S--|--L--0-----------------|
---------------------------|-----------------------|
--0-----------0------------|-----------------------|
---------------------------|-----------------------|


  ^  v  v  v  ^  v    ^                                                   
  E  E  E  E  E  Q    E     W                   E  E  E  E  E   Q    E    
--7--7--7--7--7--7----7--|--L----------------|--0--0--0--0--0---0----0---|
--9--9--9--9--9--9----9--|--L----------------|--4--4--4--4--4h--5----5S--|
--8--8--8--8--8--8----8--|--L----------------|--5--5--5--5--5--------5S--|
--0-----------0-------0--|--L----------------|---------------------------|
--0-----------0-------0--|--L----------------|--0-----------0------------|
--0-----------0-------0--|--L----------------|---------------------------|


                           ^  v  v  v  ^  ^    ^                          
  E  H        E   E  E     E  E  E  E  E  Q    E     H.           E   E   
--L-----------5S--4-----|--4--4--4--4--4--4----4--|--L-------------------|
--L--0--------7s--5-----|--5--5--5--5--5--5----5--|--L------------5------|
--L--0------------------|--3--3--3--3--3--3----3--|--L------------3s--1--|
------------------------|--0-----------0-------0--|--L-------------------|
------------------------|--0-----------0-------0--|--L-------------------|
------------------------|--0-----------0-------0--|--L-------------------|


    ^                                                             
    E.   S  S S S S E   E  E   E      E.  S S S S S S S E  E  E   
|---0-------0--------------0-------|--------0--------------------|
|---0---------0------------0-------|----------0------------------|
|*--1-----------1---1s--3--0-------|--0---------0-------0--------|
|*--0---(0)------------------------|--0---------------3----3-----|
|---0---(0)-------0----------------|--x-------------2---------0--|
|---0---(0)-------------------(0)--|--4---4-------2--------------|


  ^                                                                   
  E.   S  S S S S E   E  E   E      E   S S S S S S S  S E   E  E     
--0-------0--------------0-------|----------0-----------------------||
--0---------0------------0-------|------------0---------------------||
--1-----------1---5s--3--0-------|--0-----------0--------0---------*||
--0---(0)------------------------|--0-----------------10----10-----*||
--0---(0)-------0----------------|--x---------------9-----------0---||
--0---(0)-------------------(0)--|--4s--7-7-------7-----------------||


  ^                                                        ^ v ^  ^ v  
  E.   S  S S S S E   E   E   S   S      E.  S S S  S S E  S S E  S S  
--0-------0----------------------(0)-|---0-----0--------0----0-0----0-|
--0---------0--------------------(0)-|---0-------0------0------7----0-|
--1-----------1---5s--3s--7-------7--|--10---------10---8--8---8--0-0-|
--0---(0)--------------------(0)-----|---0---0--------0-0--0---0--0---|
--0---(0)-------0--------------------|-------0--------0----0------0---|
--0---(0)----------------------------|--------------------------------|


  ^                         ^         ^                           ^       
                                                  |-3-|                   
  E.  S S S S S S  S S S    E  S S    E.  S S S S T T T E   S S   E  S S  
--4-----4-------5S-7-L-0-<>12----0-|--4-----4-----------7\----0-<>5----0-|
--5-------5-----7S-9-L-0-<>12----0-|--5-------5-------4-L\----0-<>5----0-|
--0---------0------------<>12------|--0---------0---0-----------<>5------|
--0-----------0----------<>12------|--0-----------0---------0---<>5--0---|
--0---0--------------0---<>12------|--0---0-----------------0--------0---|
------0--------------0---<>12--0---|------------------------0--------0---|


  ^                             
  E.  S S S S S E   E  E   E    
--0-----0----------------------|
--2-------2-----2s--4--0-------|
--1---------1---1s--3--0-------|
--3-------------3s--5--0-------|
--0---0-------0----------------|
--------------------------(0)--|


     ^           NH  NH                            
     E.   S  S   S   E   E    S   S   E    S   S   
--<>12-------0------------------------------------|
--<>12---------<>5---------------(0)----------(0)-|
--<>12-------------<>5-----------(0)--------------|
--<>12---(0)--------------------------------------|
--<>12---(0)------------(0)--(0)-----(0)--(0)-----|
--<>12------------------(0)--(0)-----(0)--(0)-----|


  ^                         ^         ^                        ^         
                                                  |-3-|                  
  E.  S S S S S S  S S S    E  S S    E.  S S S S T T T E  S S S  S S S  
--4-----4-------5S-7-L-0-<>12----0-|--4-----4-----------7----5-5p-0---0-|
--5-------5-----7S-9-L-0-<>12----0-|--5-------5-------4------2-2p-0---0-|
--0---------0------------<>12------|--0---------0---0----------0------0-|
--0-----------0----------<>12------|--0-----------0--------0---0----0---|
--0---0--------------0---<>12------|--0---0-------------------------0---|
------0--------------0---<>12--0---|--------------------------------0---|


                                  ^           NH  NH            ^        
  E.  S S S S S E   E  Q          E.   S  S   S   E   E    S  S E   S S  
--0-----0-------------------|--<>12-------0-----------------------------|
--0-------0-----0---L-------|--<>12---------<>5---------------7-7\----4-|
--0---------0---0---L-------|--<>12-------------<>5-----------8-8\----5-|
--0-------------0---L--0----|--<>12---(0)-----------------------0-------|
--x-------------x------0----|--<>12---(0)------------(0)--(0)---0---0---|
--2---2-------2-2s--4--0----|--<>12------------------(0)--(0)---0---0---|


                         ^                                    ^        
                                                 |-3-|                 
  E.  S S S S S S  S S S S  S S S    E.  S S S S T T T E  S S E   S S  
--0-----0-------0------0-0------0-|--0-----0----------------0-0-----0-|
--4-------4-----4h-5---5-5p-4---4-|--4-------4---------4----9-9S--0-0-|
--5---------5---5------5-5------5-|--5---------5-----5------8-8S--0---|
--0-------------------------------|--0-------------0----------0---0---|
--x-------------------------------|--x--------------------------------|
--2---2-------2------2--------2---|--2---2-------2--------0-----------|


                         ^         
  E.  S S S S S S  S S S S  S S S  
--0-----0-------0------0-0------0-|
--4-------4-----4h-5---5-5p-4---4-|
--5---------5---5------5-5------5-|
--0-------------------------------|
--0-----------0------0--------0---|
--0---0---------------------------|


  ^                                        
  E  T T T T E  T T T T E  T T T T E   E   
--0---------------------------------------|
--4--------4-4--------2-2--------2-2p--0--|
--5------3---3------1---1------1---1p--0--|
-------0-----0----0-----0----0-----0------|
-----0-------0--0-------0--0-------0------|
------------------------------------------|


    ^                                                          
    E.   S  S S S S E   E  Q       E.  S S S S S S S E  E  E   
|---0-------0--------------0----|--------0--------------------|
|---0---------0------------0----|----------0------------------|
|*--1-----------1---1s--3--0----|--0---------0-------0--------|
|*--0---(0)---------------------|--0---------------3----3-----|
|---0---(0)-------0-------------|--x-------------2---------0--|
|---0---(0)---------------------|--4---4-------2--------------|


  ^                                                                        
  E.  S S S S S E   E  E   E      E   S S S S S S S  S E   S  S  S   S     
--0-----0--------------0-------|----------0------------------------------||
--0-------0------------0-------|------------0-----------------------(0)--||
--1---------1---5s--3--0-------|--0-----------0--------0---0--------(0)-*||
--0----------------------------|--0-----------------10----10p-0-(0)-----*||
--0---0-------0----------------|--x---------------9--------9p-0--0-------||
--0---0-------------------(0)--|--4s--7-7-------7----------------0-------||


  E   S S S S S  S S  S E   S  S S S  
----------0------------------------0-|
------------0----------------------0-|
--0-----------0---------0---0------0-|
--0------------------10----10p-0-0---|
--x----------------9--------9p-0-0---|
--4s--7-7-------12---------12p-0-0---|


                          NH   NH        ^         
                  |---3---|                        
   E.   S  S S S  T  T    T    E   S  S  E   S  S  
--12------12-------------------------12-12-----12-|
---0---------0--------------<>12------0--0------0-|
---0-----------0-------<>12-----------0--0------0-|
--10---10-----------10------------10----10--10----|
--11---11--------11---------------11--------11----|
--12---12-------------------------12--------12----|


                          NH   NH        ^       
                  |---3---|                      
   E.   S  S S S  T  T    T    E   S  S  E  S S  
--12------12-------------------------12-12----0-|
---0---------0--------------<>12------0--0----0-|
---0-----------0-------<>12-----------0--0----0-|
--10---10-----------10------------10----10--0---|
--11---11--------11---------------11--------0---|
--12---12-------------------------12--------0---|


                                                           ^         
          |---3--|        |--3--|                                    
   E.   S E   E  E  E.  S E  E  E     E.  S S S S S E  S S S  S S S  
----------0---------------0--------|--------0--------------0------0-|
---0---------10-----0--------9-----|--0-------0-----0----0-0------0-|
---0-------------0--0-----------0--|--0---------8---7----7-7h-8---0-|
---0----------------0--------------|--0-----------------------------|
---9----9-----------7---7----------|--6---6-------6----6--------0---|
--11---11-----------9---9----------|--7---7------------7--------0---|


                          NH   NH                  
                  |---3---|                        
   E.   S  S S S  T  T    T    E   S  S  E   S  S  
--12------12-------------------------12-12-----14-|
---0---------0--------------<>12------0--0------0-|
---0-----------0-------<>12-----------0--0------0-|
--10---10-----------10------------10----10--10----|
--11---11--------11---------------11--------11----|
--12---12-------------------------12--------12----|


   ^                      NH   NH                
                  |---3---|                      
   E.   S  S S S  T  T    T    E   S  S  E  S S  
--14------12-------------------------16-16----0-|
---0---------0--------------<>12------0--0----0-|
---0-----------0-------<>12-----------0--0----0-|
--10---10-----------10------------10----10--0---|
--11---11--------11---------------11--------0---|
--12---12-------------------------12--------0---|


                                     ^      ^      ^    ^          
          |---3---|                                                
   E.   S E   E   E  E.  S S S E     S  S S S  S S S  S H          
----------0----------------0------|-------------------------------|
---0---------10------0-------9----|-------------------------------|
---0-------------12--0---------8--|-------------------------------|
---0-----------------0------------|-------0------0------5b--------|
---9----9------------7---7--------|--6p-0-0-4p-0-0-2p-0-4b--------|
--11---11------------9---9--------|--7p-0-0-5p-0-0-4p-0-2b--------|


  ^                                                         
  E.  S S S S S E   E  E  E     E.  S S S S S S S E  E  E   
--0-----0--------------0-----|--------0--------------------|
--0-------0------------0-----|----------0------------------|
--0---------1---1s--3--0-----|--0---------0-------0--------|
--0---0----------------------|--0---------------3----3-----|
--0---0-------0--------------|--x-------------2---------0--|
--0---0-------------------0--|--4---4-------2--------------|


  ^                                                                     
  E.  S S S S S E   E  E   E      E   S S S S S S S  S E   S S  S   S   
--0-----0--------------0-------|----------0----------------------------|
--0-------0-----5---4--0-------|------------0--------------0-------(0)-|
--1---------1---5s--3--0-------|--0-----------0--------0---8-------(0)-|
--0---0------------------------|--0-----------------10----10-0-(0)-----|
--0---0-------0----------------|--x---------------9--------9-0--0------|
--0---0-------------------(0)--|--4s--7-7-------7----------7----0------|


  ^                                                         
  E.  S S S S S E   E  E  E     E.  S S S S S S S E  E  E   
--0-----0--------------0-----|--------0--------------------|
--0-------2-----2s--4--0-----|--0-------0------------------|
--1---------1---1s--3--0-----|--0---------0-------0--------|
--0---0----------------------|--0---------------0----0-----|
--0---0-------0--------------|--x-------------0---------0--|
--0---0-------------------0--|--4---4-------2--------------|


  ^                                                          ^       
  E.  S S S S S E  E  E   S   S      E.   S S  S  S S E  S S E  S S  
--0-----0--------------------(0)-|---0------0---------0----0-0----0-|
--0-------0-----5--4--7~----(10)-|--10~-------10------9----7-7----0-|
--1---------1---5--3--7~-----10--|--10~----------10---8----8-8----0-|
--0---0---------------0---0------|---0----0---------0-0--0---0--0---|
--0---0-------0-----------0------|--------0---------0----0---0--0---|
--0---0-------------------0------|--------0--------------0------0---|


  ^         v       ^         ^         v      ^ v ^         
  E.  S S S Q    E  E  S S    E.  S S S E   E  S S S  S S S  
--------0-----------0------|--------0-----------------------|
--0-------0---------0----0-|--0-------0--------0-0-0------0-|
--0---------0-------0----0-|--0---------0------0-0-0------0-|
--3---3-----3-------3--3-3-|--3---3-----3s--5--5-5-5p-0---0-|
--2---2-----2-------2--2---|--2---2-----2---------------0---|
--4---4-----4----4--4--4---|--4---4-----4---------------0---|


  ^         v       ^          ^         v       ^       
  E.  S S S Q    E  E  S  S    E.  S S S Q    E  E  S S  
--------0-----------0-------|--------0-----------0------|
--0-------0---------0-----0-|----------0---------0----0-|
--0---------0-------0-----0-|------------0-------0----0-|
--0---------0-------0--0--0-|--0---------0-------0--0-0-|
--0---0-----0-------0--0----|--0---0-----0-------0--0---|
--2---2-----2----2--2--2h---|--0---0-----0----0--0--0---|


  ^         v       ^         ^         v      ^ v ^         
  E.  S S S Q    E  E  S S    E.  S S S E   E  S S S  S S S  
--------0-----------0------|--------0-----------------------|
--0-------0---------0----0-|--0-------0--------0-0-0------0-|
--0---------0-------0----0-|--0---------0------0-0-0------0-|
--3---3-----3-------3--3-3-|--3---3-----3s--5--5-5-5s-7---0-|
--2---2-----2-------2--2---|--2---2-----2---------------0---|
--4---4-----4----4--4--4---|--4---4-----4---------------0---|


  ^         v       ^          ^         v       ^       
  E.  S S S Q    E  E  S  S    E.  S S S Q    E  E  S S  
--------0-----------0-------|--------0-----------0------|
--0-------0---------0-----0-|----------0---------0----0-|
--0---------0-------0-----0-|------------0-------0----0-|
--0---------0-------0--0--0-|--0---------0-------0--0-0-|
--0---0-----0-------0--0----|--0---0-----0-------0--0---|
--2---2-----2----2--2--2h---|--0---0-----0----0--0--0---|


  ^         v       ^         ^         v      ^ v ^         
  E.  S S S Q    E  E  S S    E.  S S S E   E  S S S  S S S  
--------0-----------0------|--------0-----------------------|
--0-------0---------0----0-|--0-------0--------0-0-0------0-|
--0---------0-------0----0-|--0---------0------3-3-3s-5---0-|
--3---3-----3-------3--3-3-|--3---3-----3s--5--5-5-5s-7---0-|
--2---2-----2-------2--2---|--2---2-----2s--4--4-4-4----0---|
--0---0-----0----0--0--0---|--0---0-----0---------------0---|


  ^         v       ^          ^         v       ^        
  E.  S S S Q    E  E  S  S    E.  S S S Q    E  E  S  S  
--------0-----------0-------|--------0-----------0-------|
--0-------0---------0-----0-|----------0---------0-----0-|
--0---------0-------0-----0-|------------0-------0-----0-|
--0---------0-------0--0--0-|--0---------0-------0--0--0-|
--0---0-----0-------0--0----|--0---0-----0-------0--0----|
--2---2-----2----2--2--2h---|--0---0-----0----0--0--0h---|


  ^         v         ^         ^         v      ^ v ^         
  E.  S S S Q     E   E  S S    E.  S S S E   E  S S S  S S S  
--------0-------------0------|--------0-----------------------|
--0-------0-----------0----0-|--0-------0--------0-0-0------0-|
--0---------0---------0----0-|--0---------0------3-3-3s-5---0-|
--3---3-----3---------3--3-3-|--3---3-----3s--5--5-5-5s-7---0-|
--2---2-----2---------2--2---|--2---2-----2s--4--4-4-4----0---|
--0---0-----0----(0)--0--0---|--0---0-----0---------------0---|


  ^         v       ^           ^          v            
  E.  S S S Q    E  E  S  S     E.   S S S E  H         
--------0-----------0-------|----------0---------------|
--0-------0---------0-----0-|--(0)-------0-------------|
--0---------0-------0-----0-|--(0)---------0--L--------|
--0---------0-------0--0--0-|---0----------0--L--------|
--0---0-----0-------0--0----|---0----0-----0--L--------|
--2---2-----2----2--2--2h---|---0----0-----0--L--------|


  W                  
--L----------------||
--L----------------||
--L----------------||
--L----------------||
--L----------------||
--L----------------||




Duration Legend
---------------
W - whole
H - half
Q - quarter
E - 8th
S - 16th
T - 32nd
X - 64th
. - note dotted
|-n-|  - n-tuplets


Tablature Legend
----------------
L - tied note
x - dead note
g - grace note
(n) - ghost note
> - accentuded note
NH - natural harmonic
AH - artificial harmonic
TH - tapped harmonic
SH - semi harmonic
PH - pitch harmonic
h - hammer on
p - pull off
b - bend
br - bendRelease
pb - preBend
pbr - preBendRelease
brb - bendReleaseBend
\n/ - tremolo bar dip
\n - tremolo bar dive
-/n - tremolo bar Release up
/n\ - tremolo bar inverted dip
/n - tremolo bar return
-\n - tremolo bar Release down
S - shift slide
s - legato slide
/ -  slide into from below or out of upwards
\ -  slide into from above or out of downwards
~ - vibrato
W - wide vibrato
tr - trill
TP - tremolo picking
T - tapping
S - slap
P - pop
< - fade in
^ - brush up
v - brush down





Comments


Popular Rob Scallon tabs & chords
Algonquin Rd Tabs
Amys Song Tabs
April Is The Cruelest Month Tabs
Heard Again Tabs
Iilwy Intro Tabs
Metal Mad Libs 3 Tabs
Musical Mad Libs 1 Tabs
Rain Tabs
Teagen Tabs
Theater Girl Tabs


Song lyrics



↑ Back to top | Tablatures and chords are parodies/interpretations of the original songs. You may use it for private study, scholarship, research or language learning purposes only
© 2014 AZChords.com Contact us | Privacy policy | DMCA | Add/correct tabs | Request tabs | Top 50 tabs