» » »

Rob Scallon, Musical Mad Libs Tabs (ver.1)

Artists:  A B C D E F G H I J K L M N O P Q R S T U V W X Y Z # 

Musical Mad Libs Tabs (ver.1)

Rob Scallon Tabs
Rating:
0/5 (0 votes)
Musical Mad Libs lessons Tabs too difficult? Try these video lessons and learn fast
                "(1)
    Musical Mad Libs                                 


               Q    Q     Q.     E   
E||-------||------------------------|
B||-------||------------------------|
G||-------||*-----------------------|
D||-------||*-----------------------|
A||-------||-------------11---------|
E||-------||---0----0------------0--|


   |----3----|  |----3---|  |---3---|                                
   E    E    E  E    E   E  E   E   E  E   E     Q    Q    H         
----------------------------------------------|---------------------|
----------------------------------------------|---------------------|
----------------------------------------------|---------------------|
----------------------------------------------|------------6--------|
--11h--12p--11--9h--11p--9--7h--9p--7--6h--7--|------------7--------|
----------------------------------------------|--5----5-------------|


  Q    Q    E  Q.        Q    Q     Q.     E   
----------------------|-----------------------|
----------------------|-----------------------|
----------------------|-----------------------|
--L---------6---------|-----------------------|
--L------------7------|------------11---------|
-------5--------------|--0----0------------0--|


   |----3----|  |----3---|  |---3---|                                 
   E    E    E  E    E   E  E   E   E  E   E     Q    Q    Q.     E   
----------------------------------------------|----------------------|
----------------------------------------------|----------------------|
----------------------------------------------|----------------------|
----------------------------------------------|------------6---------|
--11h--12p--11--9h--11p--9--7h--9p--7--6h--7--|------------7---------|
----------------------------------------------|--5----5-----------5--|

                             I lost my freakin cat...
  E  Q    E  E  E  Q         Q    Q    H           Q    Q    H         
-------------------------||---------------------|---------------------|
-------------------------||---------------------|---------------------|
------------------------*||---------------------|---------------------|
-------------------6----*||------------6--------|------------6--------|
--6--7-------6--7--------||-------7----7--------|-------7----7--------|
----------5--------------||--0------------------|--0------------------|


  Q    Q    H           Q    Q    Q    Q       Q    Q    H         
---------------------|----------------------|---------------------|
---------------------|------------0---------|---------------------|
---------------------|----------------------|---------------------|
------------6--------|-----------------6----|------------6--------|
-------7----7--------|-------7--------------|-------7----7--------|
--5------------------|--5-------------------|--0------------------|


  Q    Q    H           Q    Q    Q     Q       Q     Q    H         
---------------------|-----------------------|----------------------|
---------------------|-----------------------|----------------------|
---------------------|------------4s----2----|--2-----1----1--------|
------------6--------|-------6----6s----4----|--4s----2----2--------|
-------7----7--------|--0--------------------|----------------------|
--0------------------|-----------------------|----------------------|


  Q    Q    H           Q    Q    H           Q    Q    H         
---------------------|---------------------|---------------------|
---------------------|---------------------|---------------------|
---------------------|---------------------|---------------------|
------------6--------|------------6--------|------------6--------|
-------7----7--------|-------7----7--------|-------7----7--------|
--0------------------|--0------------------|--5------------------|


  Q    Q    Q    Q       Q    Q    H           Q    Q    H         
----------------------|---------------------|---------------------|
------------0---------|---------------------|---------------------|
----------------------|---------------------|---------------------|
-----------------6----|------------6--------|------------6--------|
-------7--------------|-------7----7--------|-------7----7--------|
--5-------------------|--0------------------|--0------------------|


  Q    Q    Q     Q       Q     Q    H             Q    Q     Q.     E   
-----------------------|----------------------||------------------------|
-----------------------|----------------------||------------------------|
------------4s----2----|--2-----1----1--------||*-----------------------|
-------6----6s----4----|--4s----2----2--------||*-----------------------|
--0--------------------|----------------------||-------------11---------|
-----------------------|----------------------||---0----0------------0--|


   |----3----|  |----3---|  |---3---|                                
   E    E    E  E    E   E  E   E   E  E   E     Q    Q    H         
----------------------------------------------|---------------------|
----------------------------------------------|---------------------|
----------------------------------------------|---------------------|
----------------------------------------------|------------6--------|
--11h--12p--11--9h--11p--9--7h--9p--7--6h--7--|------------7--------|
----------------------------------------------|--5----5-------------|


  Q    Q    E  Q.        Q    Q     Q.     E   
----------------------|-----------------------|
----------------------|-----------------------|
----------------------|-----------------------|
--L---------6---------|-----------------------|
--L------------7------|------------11---------|
-------5--------------|--0----0------------0--|


   |----3----|  |----3---|  |---3---|                                 
   E    E    E  E    E   E  E   E   E  E   E     Q    Q    Q.     E   
----------------------------------------------|----------------------|
----------------------------------------------|----------------------|
----------------------------------------------|----------------------|
----------------------------------------------|------------6---------|
--11h--12p--11--9h--11p--9--7h--9p--7--6h--7--|------------7---------|
----------------------------------------------|--5----5-----------5--|


  E  Q    E  E  E  Q         Q    Q    H           Q    Q    H         
-------------------------||---------------------|---------------------|
-------------------------||---------------------|---------------------|
------------------------*||---------------------|---------------------|
-------------------6----*||------------6--------|------------6--------|
--6--7-------6--7--------||-------7----7--------|-------7----7--------|
----------5--------------||--0------------------|--0------------------|


  Q    Q    H           Q    Q    Q    Q       Q    Q    H         
---------------------|----------------------|---------------------|
---------------------|------------0---------|---------------------|
---------------------|----------------------|---------------------|
------------6--------|-----------------6----|------------6--------|
-------7----7--------|-------7--------------|-------7----7--------|
--5------------------|--5-------------------|--0------------------|


  Q    Q    H           Q    Q    Q     Q       Q     Q    H         
---------------------|-----------------------|----------------------|
---------------------|-----------------------|----------------------|
---------------------|------------4s----2----|--2-----1----1--------|
------------6--------|-------6----6s----4----|--4s----2----2--------|
-------7----7--------|--0--------------------|----------------------|
--0------------------|-----------------------|----------------------|


  Q    Q    H           Q    Q    H           Q    Q    H         
---------------------|---------------------|---------------------|
---------------------|---------------------|---------------------|
---------------------|---------------------|---------------------|
------------6--------|------------6--------|------------6--------|
-------7----7--------|-------7----7--------|-------7----7--------|
--0------------------|--0------------------|--5------------------|


  Q    Q    Q    Q       Q    Q    H           Q    Q    H         
----------------------|---------------------|---------------------|
------------0---------|---------------------|---------------------|
----------------------|---------------------|---------------------|
-----------------6----|------------6--------|------------6--------|
-------7--------------|-------7----7--------|-------7----7--------|
--5-------------------|--0------------------|--0------------------|


  Q    Q    Q     Q       Q     Q    H           Q    Q    H         
-----------------------|----------------------|---------------------|
-----------------------|----------------------|---------------------|
------------4s----2----|--2-----1----1--------|------------1--------|
-------6----6s----4----|--4s----2----2--------|------------1--------|
--0--------------------|----------------------|-------2----2--------|
-----------------------|----------------------|--0------------------|


  Q    Q    Q     Q       Q    Q    Q     Q       Q     Q    Q     Q     
-----------------------|-----------------------|------------------------|
-----------------------|-----------------------|------------------------|
------------1----------|------------4s----6----|--6s----4----4s----2----|
------------1h----2----|-------2----2s----4----|--4s----2----2----------|
-------2----2----------|--0--------------------|------------------------|
--0--------------------|-----------------------|------------------------|


  Q    Q    H           Q    Q    Q     Q       Q    Q    Q     Q     
---------------------|-----------------------|-----------------------|
---------------------|-----------------------|-----------------------|
------------1--------|------------1----------|------------4s----6----|
------------1--------|------------1h----2----|-------2----2s----4----|
-------2----2--------|-------2----2----------|--0--------------------|
--0------------------|--0--------------------|-----------------------|


  Q     Q    Q     Q       Q    E  E  E  E  Q       Q    Q    Q     Q     
------------------------|------------------------|-----------------------|
------------------------|------------------------|-----------------------|
--6s----4----4s----2----|-------------------1----|--L---------1----------|
--4s----2----2----------|-------4--2--1--2--1----|--L---------1h----2----|
------------------------|-------------------2----|--L---------2----------|
------------------------|--0---------------------|-------0---------------|


  Q    Q    Q     Q       Q     Q    Q     Q       Q    E  E  E  E  Q     
-----------------------|------------------------|------------------------|
-----------------------|------------------------|------------------------|
------------4s----6----|--6s----4----4s----2----|-------------------1----|
-------2----2s----4----|--4s----2----2----------|-------4--2--1--2--1----|
--0--------------------|------------------------|-------------------2----|
-----------------------|------------------------|--0---------------------|


  Q    Q    Q     Q       Q    Q    Q     Q       Q     Q    Q     Q     
-----------------------|-----------------------|------------------------|
-----------------------|-----------------------|------------------------|
--L---------1----------|------------4s----6----|--6s----8----8s----9----|
--L---------1h----2----|-------2----2s----4----|--4s----6----6s----7----|
--L---------2----------|--0--------------------|------------------------|
--L----0---------------|-----------------------|------------------------|


                           |----3----|  |----3---|  |---3---|          
  Q    Q     Q.     E      E    E    E  E    E   E  E   E   E  E   E   
-----------------------|----------------------------------------------|
-----------------------|----------------------------------------------|
-----------------------|----------------------------------------------|
-----------------------|----------------------------------------------|
------------11---------|--11h--12p--11--9h--11p--9--7h--9p--7--6h--7--|
--0----0------------0--|----------------------------------------------|


  Q    Q    H           Q    Q    E  Q.        Q    Q     Q.     E   
---------------------|----------------------|-----------------------|
---------------------|----------------------|-----------------------|
---------------------|----------------------|-----------------------|
------------6--------|--L---------6---------|-----------------------|
------------7--------|--L------------7------|------------11---------|
--5----5-------------|-------5--------------|--0----0------------0--|


   |----3----|  |----3---|  |---3---|                                 
   E    E    E  E    E   E  E   E   E  E   E     Q    Q    Q.     E   
----------------------------------------------|----------------------|
----------------------------------------------|----------------------|
----------------------------------------------|----------------------|
----------------------------------------------|------------6---------|
--11h--12p--11--9h--11p--9--7h--9p--7--6h--7--|------------7---------|
----------------------------------------------|--5----5-----------5--|


  E  Q    E  E  E  Q       Q    Q     Q.     E   
------------------------|-----------------------|
------------------------|-----------------------|
------------------------|-----------------------|
-------------------6----|-----------------------|
--6--7-------6--7-------|------------11---------|
----------5-------------|--0----0------------0--|


   |----3----|  |----3---|  |---3---|                                
   E    E    E  E    E   E  E   E   E  E   E     Q    Q    H         
----------------------------------------------|---------------------|
----------------------------------------------|---------------------|
----------------------------------------------|---------------------|
----------------------------------------------|------------6--------|
--11h--12p--11--9h--11p--9--7h--9p--7--6h--7--|------------7--------|
----------------------------------------------|--5----5-------------|


  Q    Q    E  Q.        Q    Q     Q.     E   
----------------------|-----------------------|
----------------------|-----------------------|
----------------------|-----------------------|
--L---------6---------|-----------------------|
--L------------7------|------------11---------|
-------5--------------|--0----0------------0--|


   |----3----|  |----3---|  |---3---|                                 
   E    E    E  E    E   E  E   E   E  E   E     Q    Q    Q.     E   
----------------------------------------------|----------------------|
----------------------------------------------|----------------------|
----------------------------------------------|----------------------|
----------------------------------------------|------------6---------|
--11h--12p--11--9h--11p--9--7h--9p--7--6h--7--|------------7---------|
----------------------------------------------|--5----5-----------5--|


  E  Q    E  E  E  Q        W                  
-------------------------|-------------------||
-------------------------|-------------------||
-------------------------|-------------------||
-------------------6S----|--2----------------||
--6--7-------6--7--------|--2----------------||
----------5--------------|--0----------------||




Duration Legend
---------------
W - whole
H - half
Q - quarter
E - 8th
S - 16th
T - 32nd
X - 64th
. - note dotted
|-n-|  - n-tuplets


Tablature Legend
----------------
L - tied note
x - dead note
g - grace note
(n) - ghost note
> - accentuded note
NH - natural harmonic
AH - artificial harmonic
TH - tapped harmonic
SH - semi harmonic
PH - pitch harmonic
h - hammer on
p - pull off
b - bend
br - bendRelease
pb - preBend
pbr - preBendRelease
brb - bendReleaseBend
\n/ - tremolo bar dip
\n - tremolo bar dive
-/n - tremolo bar Release up
/n\ - tremolo bar inverted dip
/n - tremolo bar return
-\n - tremolo bar Release down
S - shift slide
s - legato slide
/ -  slide into from below or out of upwards
\ -  slide into from above or out of downwards
~ - vibrato
W - wide vibrato
tr - trill
TP - tremolo picking
T - tapping
S - slap
P - pop
< - fade in
^ - brush up
v - brush down
"            

comments powered by Disqus
↑ Back to top | Rob Scallon Tabs for Musical Mad Libs. Lyrics for acoustic guitar and electric guitar. Tablatures and chords are parodies/interpretations of the original songs. You may use it for private study, scholarship, research or language learning purposes only