>
 >
Metal Mad Libs 2

Metal Mad Libs 2 Guitar Tabs

Rob Scallon - Metal Mad Libs 2 chords, tabs, tablatures, lyrics

Guitar lessons | Add/correct | Request | Top 50 tabs Artists:  A B C D E F G H I J K L M N O P Q R S T U V W X Y Z 0-9

Metal Mad Libs 2 Guitar Tabs – Rob Scallon

CD, Sheet music, Poster

Do you like Metal Mad Libs 2? Share with your friends now
Tabs
 Metal Mad libs 2                            


       PM PM PM PM PM PM PM PM PM PM PM PM     W       
       |--3--|  |--3--|  |--3--|  |--3--|              
       S  S  S  S  S  S  S  S  S  S  S  S  E   Q.      
C ||--------------------------------------------------|
G ||--------------------------------------16--17------|
D#||-----------------------------14-16-17-------------|
A#||--------------------14-16-17----------------------|
F ||-----------12-14-15-------------------------------|
C ||--12-14-15----------------------------------------|


                                      W                    W         
                                              |--3--|                
    Q.      Q      S  S  S S  S S     Q.      S  S  S  E   Q     E   
----------------------------------|-------------------20------------|
--/19------19b----19b---19---17---|--16------16-17-16-----16----16--|
----------------------------------|---------------------------------|
----------------------------------|---------------------------------|
----------------------------------|---------------------------------|
----------------------------------|---------------------------------|


                              W                 
   |--3--|  |--3--|  |--3--|                    
   S  S  S  S  S  S  S  S  S  Q      E   Q      
-----------------------------------------------|
--19-17-16-------------------------------------|
-----------17-16-14----------------------------|
--------------------17-16-14-13----------------|
-----------------------------------/15--14\----|
-----------------------------------------------|


                          W    PM  
       |--3-| |--3-|               
  Q    S S  S S S  S E    Q    E   
----------------------------------|
----------------------------------|
---------------------8--<>9-------|
--2-----------7-9-10--------------|
--2----7-9-10------------------0--|
--0----------------------------0--|


     W    PM    W                   
     Q    E     Q     S S  S S S S  
-----------------------------------|
-----------------------------------|
--<>11-------<>12----12---11---9---|
-----------------------------------|
----------0------------------------|
----------0------------------------|


                               W     
        |-3-|  |-3-|  |-3-|          
  Q     S S S  S S S  S S S E  Q     
------------------------------------|
------------------------------------|
--8----11-9-8-----------------------|
--------------10-9-7----------------|
---------------------10-9-7-6--7----|
------------------------------------|


          PM   PM                    
                           |--3--|   
  S  S  S S  S S  E  Q     E  E  E   
------------------------------------|
------------------------------------|
------------------------------------|
------------------------------------|
--6h-7p-6----6----6--7\----2--2--2--|
----------8----8-----------2--2--2--|


  |-3-| |-3-| |-3-| |-3-| |-3-| |-3-| |-3-| |-3-|  
  S S S S S S S S S S S S S S S S S S S S S S S S  
--------------------------------------------------|
--------------------------------------------------|
--------------------------------------------------|
--------------------------------------------------|
--------------------------------------3-3-3-2-2-2-|
--0-0-0-0-0-0-2-2-2-2-2-2-3-3-3-3-3-3-------------|


                                  PM   PM       
  |-3-| |-3-| |-3-| |-3-|                       
  S S S S S S S S S S S S S  S  S S  S S  S  S  
-----------------------------------------------|
-----------------------------------------------|
-----------------------------------------------|
--------------------------1h-2p-1----1----1h-2-|
----------------------------------3----3-------|
--0-0-0-2-2-2-3-3-3-2-2-2----------------------|


  |-3-| |-3-| |-3-| |-3-| |-3-| |-3-| |-3-| |-3-|  
  S S S S S S S S S S S S S S S S S S S S S S S S  
--------------------------------------------------|
--------------------------------------------------|
--------------------------------------------------|
--------------------------------------------------|
--------------------------------------3-3-3-2-2-2-|
--0-0-0-0-0-0-2-2-2-2-2-2-3-3-3-3-3-3-------------|


  |-3-| |-3-| |-3-| |-3-|            
  S S S S S S S S S S S S Q    Q     
------------------------------------|
------------------------------------|
--------------------------4----3----|
--------------------------2----1----|
--------------------------2----1----|
--0-0-0-2-2-2-3-3-3-2-2-2-----------|


  |-3-| |-3-| |-3-| |-3-| |-3-| |-3-| |-3-| |-3-|  
  S S S S S S S S S S S S S S S S S S S S S S S S  
--------------------------------------------------|
--------------------------------------------------|
--------------------------------------------------|
--------------------------------------------------|
--------------------------------------3-3-3-2-2-2-|
--0-0-0-0-0-0-2-2-2-2-2-2-3-3-3-3-3-3-------------|


                                  PM   PM       
  |-3-| |-3-| |-3-| |-3-|                       
  S S S S S S S S S S S S S  S  S S  S S  S  S  
-----------------------------------------------|
-----------------------------------------------|
-----------------------------------------------|
--------------------------1h-2p-1----1----1h-2-|
----------------------------------3----3-------|
--0-0-0-2-2-2-3-3-3-2-2-2----------------------|


  |-3-| |-3-| |-3-| |-3-| |-3-| |-3-| |-3-| |-3-|  
  S S S S S S S S S S S S S S S S S S S S S S S S  
--------------------------------------------------|
--------------------------------------------------|
--------------------------------------------------|
--------------------------------------------------|
--------------------------------------3-3-3-2-2-2-|
--0-0-0-0-0-0-2-2-2-2-2-2-3-3-3-3-3-3-------------|


  |-3-| |-3-| |-3-| |-3-|             
  S S S S S S S S S S S S E  Q    E   
-------------------------------------|
-------------------------------------|
--------------------------4-------3--|
--------------------------2-------1--|
--------------------------2-------1--|
--0-0-0-2-2-2-3-3-3-2-2-2------------|


  |-3-| |-3-|     |-3-| |-3-|     |-3-| |-3-|  
  S S S S S S S S S S S S S S S S S S S S S S  
----------------------------------------------|
----------------------------------------------|
----------------------------------------------|
--------------1---------------2---------------|
--------0-2-3-----------0-2-3-----------0-2-3-|
--0-2-3-----------0-2-3-----------0-2-3-------|


  |-3-| |-3-|     |-3-| |-3-|            
  S S S S S S S S S S S S S S S S E  E   
----------------------------------------|
----------------------------------------|
----------------------------------------|
--------------1---------------2---2--1--|
--------0-2-3-----------0-2-3-----3--2--|
--0-2-3-----------0-2-3-----------3--2--|


  |-3-| |-3-|     |-3-| |-3-|     |-3-| |-3-|  
  S S S S S S S S S S S S S S S S S S S S S S  
----------------------------------------------|
----------------------------------------------|
----------------------------------------------|
--------------1---------------2---------------|
--------0-2-3-----------0-2-3-----------0-2-3-|
--0-2-3-----------0-2-3-----------0-2-3-------|


  |-3-| |-3-|     |-3-| |-3-|            
  S S S S S S S S S S S S S S S S E  E   
----------------------------------------|
----------------------------------------|
----------------------------------------|
--------------1---------------2---2--1--|
--------0-2-3-----------0-2-3-----3--2--|
--0-2-3-----------0-2-3-----------3--2--|


                PH                PH               
  |-3-| |-3-|       |-3-| |-3-|       |-3-| |-3-|  
  S S S S S S   S S S S S S S S   S S S S S S S S  
--------------------------------------------------|
--------------------------------------------------|
--------------------------------------------------|
--------------<>1---------------<>2---------------|
--------0-2-3-------------0-2-3-------------0-2-3-|
--0-2-3-------------0-2-3-------------0-2-3-------|


                PH                PH         
  |-3-| |-3-|       |-3-| |-3-|              
  S S S S S S   S S S S S S S S   S S E  E   
--------------------------------------------|
--------------------------------------------|
--------------------------------------------|
--------------<>1---------------<>2---2--1--|
--------0-2-3-------------0-2-3-------3--2--|
--0-2-3-------------0-2-3-------------3--2--|


                PH                PH               
  |-3-| |-3-|       |-3-| |-3-|       |-3-| |-3-|  
  S S S S S S   S S S S S S S S   S S S S S S S S  
--------------------------------------------------|
--------------------------------------------------|
--------------------------------------------------|
--------------<>1---------------<>2---------------|
--------0-2-3-------------0-2-3-------------0-2-3-|
--0-2-3-------------0-2-3-------------0-2-3-------|


                PH                PH         
  |-3-| |-3-|       |-3-| |-3-|              
  S S S S S S   S S S S S S S S   S S E  E   
--------------------------------------------|
--------------------------------------------|
--------------------------------------------|
--------------<>1---------------<>2---2--1--|
--------0-2-3-------------0-2-3-------3--2--|
--0-2-3-------------0-2-3-------------3--2--|


  PM PM PM PM PM PM PM PM PM PM PM PM PM PM  PMPM PM  PMPM  PM PMPM  P
  |--3--|  |--3--|  |--3--|  |--3--|  |---3--| |---3--| |---3--| |---3
  S  S  S  S  S  S  S  S  S  S  S  S  S  S   S S  S   S S   S  S S   S
----------------------------------------------------------------------
----------------------------------------------------------------------
----------------------------------------------------------------------
----------------------------------------------------------------------
-----------5--7--8-----------6--8--9-----------7--9--10----------8--10
--5--7--8-----------6--8--9-----------7--9--10----------8--10-11------


   PM PM PM PM PM PM PM PM PM PM PM PM     W       
   |--3--|  |--3--|  |--3--|  |--3--|              
   S  S  S  S  S  S  S  S  S  S  S  S  E   Q.      
--------------------------------------------------|
--------------------------------------16--17------|
-----------------------------14-16-17-------------|
--------------------14-16-17----------------------|
-----------12-14-15-------------------------------|
--12-14-15----------------------------------------|


                                      W                    W         
                                              |--3--|                
    Q.      Q      S  S  S S  S S     Q.      S  S  S  E   Q     E   
----------------------------------|-------------------20------------|
--/19------19b----19b---19---17---|--16------16-17-16-----16----16--|
----------------------------------|---------------------------------|
----------------------------------|---------------------------------|
----------------------------------|---------------------------------|
----------------------------------|---------------------------------|


                              W                 
   |--3--|  |--3--|  |--3--|                    
   S  S  S  S  S  S  S  S  S  Q      E   Q      
-----------------------------------------------|
--19-17-16-------------------------------------|
-----------17-16-14----------------------------|
--------------------17-16-14-13----------------|
-----------------------------------/15--14\----|
-----------------------------------------------|


  |-3-| |-3-| |-3-| |-3-| |-3-| |-3-| |-3-| |-3-|  
  S S S S S S S S S S S S S S S S S S S S S S S S  
--------------------------------------------------|
--------------------------------------------------|
--------------------------------------------------|
--------------------------------------------------|
--------------------------------------3-3-3-2-2-2-|
--0-0-0-0-0-0-2-2-2-2-2-2-3-3-3-3-3-3-------------|


                                  PM   PM       
  |-3-| |-3-| |-3-| |-3-|                       
  S S S S S S S S S S S S S  S  S S  S S  S  S  
-----------------------------------------------|
-----------------------------------------------|
-----------------------------------------------|
--------------------------1h-2p-1----1----1h-2-|
----------------------------------3----3-------|
--0-0-0-2-2-2-3-3-3-2-2-2----------------------|


  |-3-| |-3-| |-3-| |-3-| |-3-| |-3-| |-3-| |-3-|  
  S S S S S S S S S S S S S S S S S S S S S S S S  
--------------------------------------------------|
--------------------------------------------------|
--------------------------------------------------|
--------------------------------------------------|
--------------------------------------3-3-3-2-2-2-|
--0-0-0-0-0-0-2-2-2-2-2-2-3-3-3-3-3-3-------------|


  |-3-| |-3-| |-3-| |-3-|            
  S S S S S S S S S S S S Q    Q     
------------------------------------|
------------------------------------|
--------------------------4----3----|
--------------------------2----1----|
--------------------------2----1----|
--0-0-0-2-2-2-3-3-3-2-2-2-----------|


  |-3-| |-3-| |-3-| |-3-| |-3-| |-3-| |-3-| |-3-|  
  S S S S S S S S S S S S S S S S S S S S S S S S  
--------------------------------------------------|
--------------------------------------------------|
--------------------------------------------------|
--------------------------------------------------|
--------------------------------------3-3-3-2-2-2-|
--0-0-0-0-0-0-2-2-2-2-2-2-3-3-3-3-3-3-------------|


                                  PM   PM   PH    
  |-3-| |-3-| |-3-| |-3-|                         
  S S S S S S S S S S S S S  S  S S  S S    S  S  
-------------------------------------------------|
-------------------------------------------------|
-------------------------------------------------|
--------------------------1h-2p-1----1----<>1h-2-|
----------------------------------3----3---------|
--0-0-0-2-2-2-3-3-3-2-2-2------------------------|


  |-3-| |-3-| |-3-| |-3-| |-3-| |-3-| |-3-| |-3-|  
  S S S S S S S S S S S S S S S S S S S S S S S S  
--------------------------------------------------|
--------------------------------------------------|
--------------------------------------------------|
--------------------------------------------------|
--------------------------------------3-3-3-2-2-2-|
--0-0-0-0-0-0-2-2-2-2-2-2-3-3-3-3-3-3-------------|


                                            PM PM PM              
  |-3-| |-3-| |-3-| |-3-|                   |--3--|               
  S S S S S S S S S S S S Q    Q       Q    E  E  E  E  E  E  E   
------------------------------------|----------------------------|
------------------------------------|-------------------0--------|
------------------------------------|----------------0-----0-----|
--------------------------2----1----|--2-------------2--------2--|
--------------------------3----2----|--2----2--2--2--2-----------|
--0-0-0-2-2-2-3-3-3-2-2-2-3----2----|--0----0--0--0--0-----------|


       PM PM PM    PM                PM PM PM              
       |--3--|                       |--3--|               
  Q    E  E  E  E  E  E   E     Q    E  E  E  E  E  E  E   
-----------------------------|----------------------------|
--x--------------------------|-------------------0--------|
--x--------------------------|----------------0-----0-----|
--1-------------1-----1s--2--|--2-------------2--------2--|
--1----1--1--1--1--1--1s--2--|--2----2--2--2--2-----------|
--0----0--0--0--0--0--0------|--0----0--0--0--0-----------|


       PM PM PM    PM                PM PM PM              
       |--3--|                       |--3--|               
  Q    E  E  E  E  E  E   E     Q    E  E  E  E  E  E  E   
-----------------------------|----------------------------|
--x--------------------------|-------------------0--------|
--x--------------------------|----------------0-----0-----|
--1-------------1-----1s--2--|--2-------------2--------2--|
--1----1--1--1--1--1--1s--2--|--2----2--2--2--2-----------|
--0----0--0--0--0--0--0------|--0----0--0--0--0-----------|


       PM PM PM    PM                PM PM PM              
       |--3--|                       |--3--|               
  Q    E  E  E  E  E  E   E     Q    E  E  E  E  E  E  E   
-----------------------------|----------------------------|
--x--------------------------|-------------------0--------|
--x--------------------------|----------------0-----0-----|
--1-------------1-----1s--2--|--2-------------2--------2--|
--1----1--1--1--1--1--1s--2--|--2----2--2--2--2-----------|
--0----0--0--0--0--0--0------|--0----0--0--0--0-----------|


       PM PM PM    PM               PM PM PM          PM PM  
       |--3--|                      |--3--|        |--3--|   
  Q    E  E  E  E  E  E  E     Q    E  E  E  E  E  E  E  E   
----------------------------|-------------------------------|
--x-------------------------|--x----------------------------|
--x-------------------------|--x----------------------------|
--1-------------1-----1-----|--1-------------2--2--2--------|
--1----1--1--1--1--1--1-----|--1----1--1--1--2--2--2--2--2--|
--0----0--0--0--0--0--0-----|--0----0--0--0--0--0--0--0--0--|


       PM PM PM    PM               PM PM PM              
       |--3--|                      |--3--|               
  Q    E  E  E  E  E  E  E     Q    E  E  E  E  E  E  E   
----------------------------|----------------------------|
--x-------------------------|--x-------------------------|
--x-------------------------|--x-------------------------|
--1-------------1-----1-----|--1-------------2--2--2--2--|
--1----1--1--1--1--1--1-----|--1----1--1--1--2--2--2--2--|
--0----0--0--0--0--0--0-----|--0----0--0--0--0--0--0--0--|


  |-3-| |-3-|     |-3-| |-3-|     |-3-| |-3-|  
  S S S S S S S S S S S S S S S S S S S S S S  
----------------------------------------------|
----------------------------------------------|
----------------------------------------------|
--------------1---------------2---------------|
--------0-2-3-----------0-2-3-----------0-2-3-|
--0-2-3-----------0-2-3-----------0-2-3-------|


  |-3-| |-3-|     |-3-| |-3-|            
  S S S S S S S S S S S S S S S S E  E   
----------------------------------------|
----------------------------------------|
----------------------------------------|
--------------1---------------2---2--1--|
--------0-2-3-----------0-2-3-----3--2--|
--0-2-3-----------0-2-3-----------3--2--|


  |-3-| |-3-|     |-3-| |-3-|     |-3-| |-3-|  
  S S S S S S S S S S S S S S S S S S S S S S  
----------------------------------------------|
----------------------------------------------|
----------------------------------------------|
--------------1---------------2---------------|
--------0-2-3-----------0-2-3-----------0-2-3-|
--0-2-3-----------0-2-3-----------0-2-3-------|


  |-3-| |-3-|     |-3-| |-3-|            
  S S S S S S S S S S S S S S S S E  E   
----------------------------------------|
----------------------------------------|
----------------------------------------|
--------------1---------------2---2--1--|
--------0-2-3-----------0-2-3-----3--2--|
--0-2-3-----------0-2-3-----------3--2--|


                PH                PH               
  |-3-| |-3-|       |-3-| |-3-|       |-3-| |-3-|  
  S S S S S S   S S S S S S S S   S S S S S S S S  
--------------------------------------------------|
--------------------------------------------------|
--------------------------------------------------|
--------------<>1---------------<>2---------------|
--------0-2-3-------------0-2-3-------------0-2-3-|
--0-2-3-------------0-2-3-------------0-2-3-------|


                PH                PH         
  |-3-| |-3-|       |-3-| |-3-|              
  S S S S S S   S S S S S S S S   S S E  E   
--------------------------------------------|
--------------------------------------------|
--------------------------------------------|
--------------<>1---------------<>2---2--1--|
--------0-2-3-------------0-2-3-------3--2--|
--0-2-3-------------0-2-3-------------3--2--|


                PH                PH               
  |-3-| |-3-|       |-3-| |-3-|       |-3-| |-3-|  
  S S S S S S   S S S S S S S S   S S S S S S S S  
--------------------------------------------------|
--------------------------------------------------|
--------------------------------------------------|
--------------<>1---------------<>2---------------|
--------0-2-3-------------0-2-3-------------0-2-3-|
--0-2-3-------------0-2-3-------------0-2-3-------|


                PH                PH         
  |-3-| |-3-|       |-3-| |-3-|              
  S S S S S S   S S S S S S S S   S S E  E   
--------------------------------------------|
--------------------------------------------|
--------------------------------------------|
--------------<>1---------------<>2---2--1--|
--------0-2-3-------------0-2-3-------3--2--|
--0-2-3-------------0-2-3-------------3--2--|


  PM PM PM PM PM PM PM PM PM PM PM PM PM PM  PMPM PM  PMPM  PM PMPM  P
  |--3--|  |--3--|  |--3--|  |--3--|  |---3--| |---3--| |---3--| |---3
  S  S  S  S  S  S  S  S  S  S  S  S  S  S   S S  S   S S   S  S S   S
----------------------------------------------------------------------
----------------------------------------------------------------------
----------------------------------------------------------------------
----------------------------------------------------------------------
-----------5--7--8-----------6--8--9-----------7--9--10----------8--10
--5--7--8-----------6--8--9-----------7--9--10----------8--10-11------


   PM PM PM PM PM PM PM PM PM PM PM PM     W       
   |--3--|  |--3--|  |--3--|  |--3--|              
   S  S  S  S  S  S  S  S  S  S  S  S  E   Q.      
--------------------------------------------------|
--------------------------------------16--17------|
-----------------------------14-16-17-------------|
--------------------14-16-17----------------------|
-----------12-14-15-------------------------------|
--12-14-15----------------------------------------|


                                      W                    W         
                                              |--3--|                
    Q.      Q      S  S  S S  S S     Q.      S  S  S  E   Q     E   
----------------------------------|-------------------20------------|
--/19------19b----19b---19---17---|--16------16-17-16-----16----16--|
----------------------------------|---------------------------------|
----------------------------------|---------------------------------|
----------------------------------|---------------------------------|
----------------------------------|---------------------------------|


                              W                 
   |--3--|  |--3--|  |--3--|                    
   S  S  S  S  S  S  S  S  S  Q      E   Q      
-----------------------------------------------|
--19-17-16-------------------------------------|
-----------17-16-14----------------------------|
--------------------17-16-14-13----------------|
-----------------------------------/15--14\----|
-----------------------------------------------|


                          W    PM  
       |--3-| |--3-|               
  Q    S S  S S S  S E    Q    E   
----------------------------------|
----------------------------------|
---------------------8--<>9-------|
--2-----------7-9-10--------------|
--2----7-9-10------------------0--|
--0----------------------------0--|


     W    PM    W                   
     Q    E     Q     S S  S S S S  
-----------------------------------|
-----------------------------------|
--<>11-------<>12----12---11---9---|
-----------------------------------|
----------0------------------------|
----------0------------------------|


                               W     
        |-3-|  |-3-|  |-3-|          
  Q     S S S  S S S  S S S E  Q     
------------------------------------|
------------------------------------|
--8----11-9-8-----------------------|
--------------10-9-7----------------|
---------------------10-9-7-6--7----|
------------------------------------|


          PM   PM                 
  S  S  S S  S S  E  Q     Q      
---------------------------------|
---------------------------------|
---------------------------------|
---------------------------------|
--6h-7p-6----6----6--7\----------|
----------8----8-----------2/----|


   PM PM PM PM PM PM PM PM PM PM PM PM     W       
   |--3--|  |--3--|  |--3--|  |--3--|              
   S  S  S  S  S  S  S  S  S  S  S  S  E   Q.      
--------------------------------------------------|
--------------------------------------16--17------|
-----------------------------14-16-17-------------|
--------------------14-16-17----------------------|
-----------12-14-15-------------------------------|
--12-14-15----------------------------------------|


                                      W                    W         
                                              |--3--|                
    Q.      Q      S  S  S S  S S     Q.      S  S  S  E   Q     E   
----------------------------------|-------------------20------------|
--/19------19b----19b---19---17---|--16------16-17-16-----16----16--|
----------------------------------|---------------------------------|
----------------------------------|---------------------------------|
----------------------------------|---------------------------------|
----------------------------------|---------------------------------|


                              W                          
   |--3--|  |--3--|  |--3--|                             
   S  S  S  S  S  S  S  S  S  Q      E   Q               
-----------------------------------------------|-------||
--19-17-16-------------------------------------|-------||
-----------17-16-14----------------------------|-------||
--------------------17-16-14-13----------------|-------||
-----------------------------------/15--14\----|-------||
-----------------------------------------------|-------||




Duration Legend
---------------
W - whole
H - half
Q - quarter
E - 8th
S - 16th
T - 32nd
X - 64th
. - note dotted
|-n-|  - n-tuplets


Tablature Legend
----------------
L - tied note
x - dead note
g - grace note
(n) - ghost note
> - accentuded note
NH - natural harmonic
AH - artificial harmonic
TH - tapped harmonic
SH - semi harmonic
PH - pitch harmonic
h - hammer on
p - pull off
b - bend
br - bendRelease
pb - preBend
pbr - preBendRelease
brb - bendReleaseBend
\n/ - tremolo bar dip
\n - tremolo bar dive
-/n - tremolo bar Release up
/n\ - tremolo bar inverted dip
/n - tremolo bar return
-\n - tremolo bar Release down
S - shift slide
s - legato slide
/ -  slide into from below or out of upwards
\ -  slide into from above or out of downwards
~ - vibrato
W - wide vibrato
tr - trill
TP - tremolo picking
T - tapping
S - slap
P - pop
< - fade in
^ - brush up
v - brush down





Comments


Popular Rob Scallon tabs & chords
I Should Spend More Time With You Tabs
Iilwy Intro Tabs
Iowan Bird Tabs
Iphone Beard Metal Tabs
Letters From Boston Tabs
Metal Mad Libs 3 Tabs
Mutter Tabs
Rain Tabs
This Week 2 Tabs
Union Il Tabs


Song lyrics



↑ Back to top | Tablatures and chords are parodies/interpretations of the original songs. You may use it for private study, scholarship, research or language learning purposes only
© 2014 AZChords.com Contact us | Privacy policy | DMCA | Add/correct tabs | Request tabs | Top 50 tabs