>
 >
Metal Mad Libs

Metal Mad Libs Guitar Tabs

Rob Scallon - Metal Mad Libs chords, tabs, tablatures, lyrics

Guitar lessons | Add/correct | Request | Top 50 tabs Artists:  A B C D E F G H I J K L M N O P Q R S T U V W X Y Z 0-9

Metal Mad Libs Guitar Tabs – Rob Scallon

CD, Sheet music, Poster

Do you like Metal Mad Libs? Share with your friends now
Tabs
         PM PM    PM PM    PM PM    PM PM  
      |--3--|  |--3--|  |--3--|  |--3--|   
      E  E  E  E  E  E  E  E  E  E  E  E   
C ||--------------------------------------|
G ||--------------------------------------|
D#||--------------------------------------|
A#||--------------------------------------|
F ||--3--2--2--3--2--2--3--2--2--3--2--2--|
C ||--5--4--4--5--4--4--5--4--4--5--4--4--|


     PM PM    PM PM    PM PM    PM PM  
  |--3--|  |--3--|  |--3--|  |--3--|   
  E  E  E  E  E  E  E  E  E  E  E  E   
--------------------------------------|
--------------------------------------|
--------------------------------------|
--------------------------------------|
--3--2--2--3--2--2--3--2--2--3--2--2--|
--5--4--4--5--4--4--5--4--4--5--4--4--|


     PM PM    PM PM    PM PM    PM PM  
  |--3--|  |--3--|  |--3--|  |--3--|   
  E  E  E  E  E  E  E  E  E  E  E  E   
--------------------------------------|
--------------------------------------|
--------------------------------------|
--------------------------------------|
--3--2--2--3--2--2--3--2--2--3--2--2--|
--5--4--4--5--4--4--5--4--4--5--4--4--|


     PM PM    PM PM    PM PM    PM PM  
  |--3--|  |--3--|  |--3--|  |--3--|   
  E  E  E  E  E  E  E  E  E  E  E  E   
--------------------------------------|
--------------------------------------|
--------------------------------------|
--------------------------------------|
--2--3--3--2--3--3--2--3--3--6--6--6--|
--0--1--1--0--1--1--0--1--1--4--4--4--|


     PM PM    PM PM    PM PM    PM PM  
  |--3--|  |--3--|  |--3--|  |--3--|   
  E  E  E  E  E  E  E  E  E  E  E  E   
--------------------------------------|
--------------------------------------|
--------------------------------------|
--------------------------------------|
--3--2--2--3--2--2--3--2--2--3--2--2--|
--5--4--4--5--4--4--5--4--4--5--4--4--|


     PM PM    PM PM    PM PM    PM PM  
  |--3--|  |--3--|  |--3--|  |--3--|   
  E  E  E  E  E  E  E  E  E  E  E  E   
--------------------------------------|
--------------------------------------|
--------------------------------------|
--------------------------------------|
--3--2--2--3--2--2--3--2--2--3--2--2--|
--5--4--4--5--4--4--5--4--4--5--4--4--|


     PM PM    PM PM    PM PM    PM PM  
  |--3--|  |--3--|  |--3--|  |--3--|   
  E  E  E  E  E  E  E  E  E  E  E  E   
--------------------------------------|
--------------------------------------|
--------------------------------------|
--------------------------------------|
--3--2--2--3--2--2--3--2--2--3--2--2--|
--5--4--4--5--4--4--5--4--4--5--4--4--|


     PM PM    PM PM    PM PM    PM PM  
  |--3--|  |--3--|  |--3--|  |--3--|   
  E  E  E  E  E  E  E  E  E  E  E  E   
--------------------------------------|
--------------------------------------|
--------------------------------------|
--------------------------------------|
--2--3--3--2--3--3--2--3--3--6--6--6--|
--0--1--1--0--1--1--0--1--1--4--4--4--|


     PM PM    PM PM    PM PM    PM PM  
  |--3--|  |--3--|  |--3--|  |--3--|   
  E  E  E  E  E  E  E  E  E  E  E  E   
--------------------------------------|
--------------------------------------|
--------------------------------------|
--------------------------------------|
--3--2--2--3--2--2--3--2--2--3--2--2--|
--5--4--4--5--4--4--5--4--4--5--4--4--|


     PM PM    PM PM    PM PM    PM PM  
  |--3--|  |--3--|  |--3--|  |--3--|   
  E  E  E  E  E  E  E  E  E  E  E  E   
--------------------------------------|
--------------------------------------|
--------------------------------------|
--------------------------------------|
--3--2--2--3--2--2--3--2--2--3--2--2--|
--5--4--4--5--4--4--5--4--4--5--4--4--|


     PM PM    PM PM    PM PM    PM PM  
  |--3--|  |--3--|  |--3--|  |--3--|   
  E  E  E  E  E  E  E  E  E  E  E  E   
--------------------------------------|
--------------------------------------|
--------------------------------------|
--------------------------------------|
--3--2--2--3--2--2--3--2--2--3--2--2--|
--5--4--4--5--4--4--5--4--4--5--4--4--|


     PM PM    PM PM    PM PM    PM PM  
  |--3--|  |--3--|  |--3--|  |--3--|   
  E  E  E  E  E  E  E  E  E  E  E  E   
--------------------------------------|
--------------------------------------|
--------------------------------------|
--------------------------------------|
--2--3--3--2--3--3--2--3--3--6--6--6--|
--0--1--1--0--1--1--0--1--1--4--4--4--|


     PM PM    PM PM    PM PM    PM PM  
  |--3--|  |--3--|  |--3--|  |--3--|   
  E  E  E  E  E  E  E  E  E  E  E  E   
--------------------------------------|
--------------------------------------|
--------------------------------------|
--------------------------------------|
--3--2--2--3--2--2--3--2--2--3--2--2--|
--5--4--4--5--4--4--5--4--4--5--4--4--|


     PM PM    PM PM    PM PM    PM PM  
  |--3--|  |--3--|  |--3--|  |--3--|   
  E  E  E  E  E  E  E  E  E  E  E  E   
--------------------------------------|
--------------------------------------|
--------------------------------------|
--------------------------------------|
--3--2--2--3--2--2--3--2--2--3--2--2--|
--5--4--4--5--4--4--5--4--4--5--4--4--|


     PM PM    PM PM    PM PM    PM PM         PM PM PM            
  |--3--|  |--3--|  |--3--|  |--3--|          |--3--|             
  E  E  E  E  E  E  E  E  E  E  E  E     Q    E  E  E  Q    Q     
--------------------------------------|--------------------------|
--------------------------------------|--------------------------|
--------------------------------------|--------------------------|
--------------------------------------|--3-------------3----6----|
--3--2--2--3--2--2--3--2--2--3--2--2--|--3----3--3--3--3----6----|
--5--4--4--5--4--4--5--4--4--5--4--4--|--1----1--1--1--1----4----|


  PM PM PM PM PM    PM PM PM PM       PM PM  
  |-3|  |--3--|  |--3--|  |--3--|  |--3--|   
  E  S  S  S  S  E  E  E  E  E  E  E  E  E   
--------------------------------------------|
--------------------------------------------|
--------------------------------------------|
--------------------------------2--1--------|
-----------------0-----------3--------2-----|
--0--0--0--0--0--1--0--0--5--------------4--|


  PM PM PM PM PM    PM PM PM PM    PM PM     
  |-3|  |--3--|  |--3--|  |--3--|  |--3--|   
  E  S  S  S  S  E  E  E  E  E  E  E  E  E   
--------------------------------------------|
--------------------------------------------|
--------------------------------------------|
--------------------------------2--------3--|
-----------------0-----------3--------4-----|
--0--0--0--0--0--1--0--0--5--------6--------|


  PM PM PM PM PM    PM PM PM PM       PM PM  
  |-3|  |--3--|  |--3--|  |--3--|  |--3--|   
  E  S  S  S  S  E  E  E  E  E  E  E  E  E   
--------------------------------------------|
--------------------------------------------|
--------------------------------------------|
--------------------------------2--1--------|
-----------------0-----------3--------2-----|
--0--0--0--0--0--1--0--0--5--------------4--|


     PM PM PM PM PM       PM PM PM PM  
  |--3--|  |--3--|  |--3--|  |--3--|   
  E  E  E  E  E  E  E  E  E  E  E  E   
--------------------------------------|
--------------------------------------|
--------------------------------------|
--0-----------------0-----------------|
-----1--1--1--1--1-----0--0--0--0--0--|
--------3--3--3--3--------2--2--2--2--|


  PM PM PM PM PM    PM PM PM PM       PM PM  
  |-3|  |--3--|  |--3--|  |--3--|  |--3--|   
  E  S  S  S  S  E  E  E  E  E  E  E  E  E   
--------------------------------------------|
--------------------------------------------|
--------------------------------------------|
--------------------------------2--1--------|
-----------------0-----------3--------2-----|
--0--0--0--0--0--1--0--0--5--------------4--|


  PM PM PM PM PM    PM PM PM PM    PM PM   W   
  |-3|  |--3--|  |--3--|  |--3--|  |---3---|   
  E  S  S  S  S  E  E  E  E  E  E  E  E    E   
----------------------------------------------|
----------------------------------------------|
----------------------------------------------|
--------------------------------2--------<>3--|
-----------------0-----------3--------4-------|
--0--0--0--0--0--1--0--0--5--------6----------|


       PM    PM PM PM PM       PM PM  
  |--3-|  |--3--|  |--3--|  |--3--|   
  Q    E  E  E  E  E  E  E  E  E  E   
-------------------------------------|
-------------------------------------|
-------------------------------------|
--L----------------------2--1--------|
----------0-----------3--------2-----|
-------0--1--0--0--5--------------4--|


     PM PM PM PM PM       PM PM PM PM  
  |--3--|  |--3--|  |--3--|  |--3--|   
  E  E  E  E  E  E  E  E  E  E  E  E   
--------------------------------------|
--------------------------------------|
--------------------------------------|
--0-----------------0-----------------|
-----1--1--1--1--1-----0--0--0--0--0--|
--------3--3--3--3--------2--2--2--2--|


  PM PM PM PM PM    PM PM PM PM       PM PM  
  |-3|  |--3--|  |--3--|  |--3--|  |--3--|   
  E  S  S  S  S  E  E  E  E  E  E  E  E  E   
--------------------------------------------|
--------------------------------------------|
--------------------------------------------|
--------------------------------2--1--------|
-----------------0-----------3--------2-----|
--0--0--0--0--0--1--0--0--5--------------4--|


  PM PM PM PM PM    PM PM PM PM    PM PM     
  |-3|  |--3--|  |--3--|  |--3--|  |--3--|   
  E  S  S  S  S  E  E  E  E  E  E  E  E  E   
--------------------------------------------|
--------------------------------------------|
--------------------------------------------|
--------------------------------2--------3--|
-----------------0-----------3--------4-----|
--0--0--0--0--0--1--0--0--5--------6--------|


  PM PM PM PM PM    PM PM PM PM       PM PM  
  |-3|  |--3--|  |--3--|  |--3--|  |--3--|   
  E  S  S  S  S  E  E  E  E  E  E  E  E  E   
--------------------------------------------|
--------------------------------------------|
--------------------------------------------|
--------------------------------2--1--------|
-----------------0-----------3--------2-----|
--0--0--0--0--0--1--0--0--5--------------4--|


     PM PM PM PM PM       PM PM PM PM  
  |--3--|  |--3--|  |--3--|  |--3--|   
  E  E  E  E  E  E  E  E  E  E  E  E   
--------------------------------------|
--------------------------------------|
--------------------------------------|
--0-----------------0-----------------|
-----1--1--1--1--1-----0--0--0--0--0--|
--------3--3--3--3--------2--2--2--2--|


  PM PM PM PM PM    PM PM PM PM       PM PM  
  |-3|  |--3--|  |--3--|  |--3--|  |--3--|   
  E  S  S  S  S  E  E  E  E  E  E  E  E  E   
--------------------------------------------|
--------------------------------------------|
--------------------------------------------|
--------------------------------2--1--------|
-----------------0-----------3--------2-----|
--0--0--0--0--0--1--0--0--5--------------4--|


  PM PM PM PM PM    PM PM PM PM    PM PM     
  |-3|  |--3--|  |--3--|  |--3--|  |--3--|   
  E  S  S  S  S  E  E  E  E  E  E  E  E  E   
--------------------------------------------|
--------------------------------------------|
--------------------------------------------|
--------------------------------2--------3--|
-----------------0-----------3--------4-----|
--0--0--0--0--0--1--0--0--5--------6--------|


  PM PM PM PM PM    PM PM PM PM       PM PM  
  |-3|  |--3--|  |--3--|  |--3--|  |--3--|   
  E  S  S  S  S  E  E  E  E  E  E  E  E  E   
--------------------------------------------|
--------------------------------------------|
--------------------------------------------|
--------------------------------2--1--------|
-----------------0-----------3--------2-----|
--0--0--0--0--0--1--0--0--5--------------4--|


     PM PM PM PM PM       PM PM PM PM  
  |--3--|  |--3--|  |--3--|  |--3--|   
  E  E  E  E  E  E  E  E  E  E  E  E   
--------------------------------------|
--------------------------------------|
--------------------------------------|
--0-----------------0-----------------|
-----1--1--1--1--1-----0--0--0--0--0--|
--------3--3--3--3--------2--2--2--2--|


        PM PM PM PM PM PM PM             TP   TP   TP   TP TP    
  |--3--|  |--3--|  |--3--|  |--3--|               |--3-|        
  E  E  E  E  E  E  E  E  E  E  E  E     Q    Q    Q    E  Q     
--------------------------------------|-------------------------|
--------------------------------------|-------------------------|
--------------------------------------|-------------------------|
--0-----------------------------------|-------------------------|
-----0--0--0--0--0--0--0--0--0--0--0--|------------7----8--7----|
--------1--1--1--1--1--1--1--1--1--1--|--8----5-----------------|


  TP   TP   TP   TP TP TP TP       PM PM    PM PM    PM PM    PM PM  
            |--3-|  |--3--|     |--3--|  |--3--|  |--3--|  |--3--|   
  Q    Q    Q    E  E  E  E     E  E  E  E  E  E  E  E  E  E  E  E   
-----------------------------|--------------------------------------|
-----------------------------|--------------------------------------|
-----------------------------|--------------------------------------|
-----------------------------|--------------------------------------|
------------7----8--7--------|--7--6--6--7--6--6--7--6--6--7--6--6--|
--8----5---------------5--4--|--5--4--4--5--4--4--5--4--4--5--4--4--|


     PM PM    PM PM    PM PM    PM PM    TP   TP   TP   TP TP    
  |--3--|  |--3--|  |--3--|  |--3--|               |--3-|        
  E  E  E  E  E  E  E  E  E  E  E  E     Q    Q    Q    E  Q     
--------------------------------------|-------------------------|
--------------------------------------|-------------------------|
--------------------------------------|-------------------------|
--------------------------------------|-------------------------|
--7--6--6--7--6--6--7--6--6--7--6--6--|------------7----8--7----|
--5--4--4--5--4--4--5--4--4--5--4--4--|--8----5-----------------|


  TP   TP   TP TP TP TP TP TP       PM PM    PM PM    PM PM    PM PM  
            |--3--|  |--3--|     |--3--|  |--3--|  |--3--|  |--3--|   
  Q    Q    E  E  E  E  E  E     E  E  E  E  E  E  E  E  E  E  E  E   
------------------------------|--------------------------------------|
------------------------------|--------------------------------------|
------------------------------|--------------------------------------|
------------7-----------------|--------------------------------------|
---------------8--7--5--------|--6--7--7--6--7--7--6--7--7--6--7--7--|
--8----5----------------8--7--|--4--5--5--4--5--5--4--5--5--4--5--5--|


       PM PM PM              PM PM PM PM PM    PM PM PM PM       PM PM  
       |--3--|               |-3|  |--3--|  |--3--|  |--3--|  |--3--|   
  Q    E  E  E  Q    Q       E  S  S  S  S  E  E  E  E  E  E  E  E  E   
--------------------------|--------------------------------------------|
--------------------------|--------------------------------------------|
--------------------------|--------------------------------------------|
--3-------------3----6----|--------------------------------2--1--------|
--3----3--3--3--3----6----|-----------------0-----------3--------2-----|
--1----1--1--1--1----4----|--0--0--0--0--0--1--0--0--5--------------4--|


  PM PM PM PM PM    PM PM PM PM    PM PM     
  |-3|  |--3--|  |--3--|  |--3--|  |--3--|   
  E  S  S  S  S  E  E  E  E  E  E  E  E  E   
--------------------------------------------|
--------------------------------------------|
--------------------------------------------|
--------------------------------2--------3--|
-----------------0-----------3--------4-----|
--0--0--0--0--0--1--0--0--5--------6--------|


  PM PM PM PM PM    PM PM PM PM       PM PM  
  |-3|  |--3--|  |--3--|  |--3--|  |--3--|   
  E  S  S  S  S  E  E  E  E  E  E  E  E  E   
--------------------------------------------|
--------------------------------------------|
--------------------------------------------|
--------------------------------2--1--------|
-----------------0-----------3--------2-----|
--0--0--0--0--0--1--0--0--5--------------4--|


     PM PM PM PM PM       PM PM PM PM  
  |--3--|  |--3--|  |--3--|  |--3--|   
  E  E  E  E  E  E  E  E  E  E  E  E   
--------------------------------------|
--------------------------------------|
--------------------------------------|
--0-----------------0-----------------|
-----1--1--1--1--1-----0--0--0--0--0--|
--------3--3--3--3--------2--2--2--2--|


  PM PM PM PM PM    PM PM PM PM       PM PM  
  |-3|  |--3--|  |--3--|  |--3--|  |--3--|   
  E  S  S  S  S  E  E  E  E  E  E  E  E  E   
--------------------------------------------|
--------------------------------------------|
--------------------------------------------|
--------------------------------2--1--------|
-----------------0-----------3--------2-----|
--0--0--0--0--0--1--0--0--5--------------4--|


  PM PM PM PM PM    PM PM PM PM    PM PM     
  |-3|  |--3--|  |--3--|  |--3--|  |--3--|   
  E  S  S  S  S  E  E  E  E  E  E  E  E  E   
--------------------------------------------|
--------------------------------------------|
--------------------------------------------|
--------------------------------2--------3--|
-----------------0-----------3--------4-----|
--0--0--0--0--0--1--0--0--5--------6--------|


  PM PM PM PM PM    PM PM PM PM       PM PM  
  |-3|  |--3--|  |--3--|  |--3--|  |--3--|   
  E  S  S  S  S  E  E  E  E  E  E  E  E  E   
--------------------------------------------|
--------------------------------------------|
--------------------------------------------|
--------------------------------2--1--------|
-----------------0-----------3--------2-----|
--0--0--0--0--0--1--0--0--5--------------4--|


     PM PM PM PM PM       PM PM PM PM  
  |--3--|  |--3--|  |--3--|  |--3--|   
  E  E  E  E  E  E  E  E  E  E  E  E   
--------------------------------------|
--------------------------------------|
--------------------------------------|
--0-----------------0-----------------|
-----1--1--1--1--1-----0--0--0--0--0--|
--------3--3--3--3--------2--2--2--2--|


        PM PM PM PM PM PM PM                                       
  |--3--|  |--3--|  |--3--|  |--3--|               |----3----|     
  E  E  E  E  E  E  E  E  E  E  E  E     Q    Q    Q    Q    Q     
--------------------------------------|---------------------------|
--------------------------------------|---------------------------|
--------------------------------------|---------------------------|
--0-----------------------------------|---------------------------|
-----0--0--0--0--0--0--0--0--0--0--0--|--1----1----1----1----1----|
--------1--1--1--1--1--1--1--1--1--1--|--0----0----0----0----0----|


                                  |----3----|     
  Q    Q    H           Q    Q    Q    Q    Q     
---------------------|---------------------------|
---------------------|---------------------------|
---------------------|---------------------------|
---------------------|---------------------------|
--1----1-------------|--1----1----1----1----1----|
--0----0-------------|--0----0----0----0----0----|


     PM PM    PM PM    PM PM    PM PM                              
  |--3--|  |--3--|  |--3--|  |--3--|               |----3----|     
  E  E  E  E  E  E  E  E  E  E  E  E     Q    Q    Q    Q    Q     
--------------------------------------|---------------------------|
--------------------------------------|---------------------------|
--------------------------------------|---------------------------|
--------------------------------------|---------------------------|
--6--5--5--5--4--4--4--3--3--3--2--2--|--1----1----1----1----1----|
--5--4--4--4--3--3--3--2--2--2--1--1--|--0----0----0----0----0----|


                                     |----3----|     
  Q    Q      H            Q    Q    Q    Q    Q     
------------------------|---------------------------|
------------------------|---------------------------|
------------------------|---------------------------|
------------------------|---------------------------|
--1----1----------------|--1----1----1----1----1----|
--0----0----<>3b--------|--0----0----0----0----0----|


               PM PM                                                 
            |--3--|                                                  
  Q    Q    E  E  E  Q       W                   H        Q    Q     
--------------------------|-------------------|---------------------|
--------------------------|-------------------|---------------------|
--------------------------|-------------------|---------------------|
--7----6----3--------3----|--7----------------|--6--------3----2----|
--7----6----3--------3----|--7----------------|--6--------3----2----|
--5----4----1--0--0--1----|--5----------------|--4--------1----0----|


                    PM PM                                          
                 |--3--|                                           
   H.            E  E  E     W                   W                 
--------------------------|-------------------|-------------------|
--------------------------|-------------------|-------------------|
--------------------------|-------------------|-------------------|
--10------------10--9--7--|--6----------------|--7----------------|
--10------------10--9--7--|--6----------------|--7----------------|
---8-------------8--7--5--|--4----------------|--5----------------|


                                          PM PM                        
                                       |--3--|                         
  H        Q    Q        H.            E  E  E     H        Q    Q     
---------------------|--------------------------|---------------------|
---------------------|--------------------------|---------------------|
---------------------|--------------------------|---------------------|
--6--------3----2----|--10------------10--9--7--|--6--------3----6----|
--6--------3----2----|--10------------10--9--7--|--6--------3----6----|
--4--------1----0----|---8-------------8--7--5--|--4--------1----4----|


  TP   TP   TP   TP TP      TP   TP   TP   TP TP TP TP  
            |--3-|                    |--3-|  |--3--|   
  Q    Q    Q    E  Q       Q    Q    Q    E  E  E  E   
-------------------------|-----------------------------|
-------------------------|-----------------------------|
-------------------------|-----------------------------|
-------------------------|-----------------------------|
------------7----8--7----|------------7----8--7--------|
--8----5-----------------|--8----5---------------5--4--|


     PM PM    PM PM    PM PM    PM PM  
  |--3--|  |--3--|  |--3--|  |--3--|   
  E  E  E  E  E  E  E  E  E  E  E  E   
--------------------------------------|
--------------------------------------|
--------------------------------------|
--------------------------------------|
--7--6--6--7--6--6--7--6--6--7--6--6--|
--5--4--4--5--4--4--5--4--4--5--4--4--|


     PM PM    PM PM    PM PM    PM PM    TP   TP   TP   TP TP    
  |--3--|  |--3--|  |--3--|  |--3--|               |--3-|        
  E  E  E  E  E  E  E  E  E  E  E  E     Q    Q    Q    E  Q     
--------------------------------------|-------------------------|
--------------------------------------|-------------------------|
--------------------------------------|-------------------------|
--------------------------------------|-------------------------|
--7--6--6--7--6--6--7--6--6--7--6--6--|------------7----8--7----|
--5--4--4--5--4--4--5--4--4--5--4--4--|--8----5-----------------|


  TP   TP   TP TP TP TP TP TP       PM PM    PM PM    PM PM    PM PM  
            |--3--|  |--3--|     |--3--|  |--3--|  |--3--|  |--3--|   
  Q    Q    E  E  E  E  E  E     E  E  E  E  E  E  E  E  E  E  E  E   
------------------------------|--------------------------------------|
------------------------------|--------------------------------------|
------------------------------|--------------------------------------|
------------7-----------------|--------------------------------------|
---------------8--7--5--------|--6--7--7--6--7--7--6--7--7--6--7--7--|
--8----5----------------8--7--|--4--5--5--4--5--5--4--5--5--4--5--5--|


       PM PM PM              TP   TP   TP   TP TP    
       |--3--|                         |--3-|        
  Q    E  E  E  Q    Q       Q    Q    Q    E  Q     
--------------------------|-------------------------|
--------------------------|-------------------------|
--------------------------|-------------------------|
--3-------------3----6----|-------------------------|
--3----3--3--3--3----6----|------------7----8--7----|
--1----1--1--1--1----4----|--8----5-----------------|


  TP   TP   TP   TP TP TP TP    TP   TP   TP   TP TP    
            |--3-|  |--3--|               |--3-|        
  Q    Q    Q    E  E  E  E     Q    Q    Q    E  Q     
-----------------------------|-------------------------|
-----------------------------|-------------------------|
-----------------------------|-------------------------|
-----------------------------|-------------------------|
------------7----8--7--------|------------7----8--7----|
--8----5---------------5--4--|--7----4-----------------|


  TP   TP   TP   TP PM PM PM    TP   TP   TP   TP TP    
            |--3-|  |--3--|               |--3-|        
  Q    Q    Q    E  E  E  E     Q    Q    Q    E  Q     
-----------------------------|-------------------------|
-----------------------------|-------------------------|
-----------------------------|-------------------------|
-----------------------------|-------------------------|
------------7----8-----------|------------7----8--7----|
--5----4------------4--5--7--|--8----5-----------------|


  TP   TP   TP TP TP TP TP TP    TP   TP   TP   TP TP    
            |--3--|  |--3--|               |--3-|        
  Q    Q    E  E  E  E  E  E     Q    Q    Q    E  Q     
------------------------------|-------------------------|
------------------------------|-------------------------|
------------------------------|-------------------------|
------------7-----------------|-------------------------|
---------------8--7--5--------|------------7----8--7----|
--8----5----------------8--7--|--5----4-----------------|


       PM PM PM              PM                               
       |--3--|                                     ---   ---  
  Q    E  E  E  Q    Q       E  Q.     H                      
--------------------------|---------------------|-----|-----||
--------------------------|---------------------|-----|-----||
--------------------------|---------------------|-----|-----||
--3-------------3----6----|--2------------------|-----|-----||
--3----3--3--3--3----6----|--2------------------|-----|-----||
--1----1--1--1--1----4----|--0------------------|-----|-----||




Duration Legend
---------------
W - whole
H - half
Q - quarter
E - 8th
S - 16th
T - 32nd
X - 64th
. - note dotted
|-n-|  - n-tuplets


Tablature Legend
----------------
L - tied note
x - dead note
g - grace note
(n) - ghost note
> - accentuded note
NH - natural harmonic
AH - artificial harmonic
TH - tapped harmonic
SH - semi harmonic
PH - pitch harmonic
h - hammer on
p - pull off
b - bend
br - bendRelease
pb - preBend
pbr - preBendRelease
brb - bendReleaseBend
\n/ - tremolo bar dip
\n - tremolo bar dive
-/n - tremolo bar Release up
/n\ - tremolo bar inverted dip
/n - tremolo bar return
-\n - tremolo bar Release down
S - shift slide
s - legato slide
/ -  slide into from below or out of upwards
\ -  slide into from above or out of downwards
~ - vibrato
W - wide vibrato
tr - trill
TP - tremolo picking
T - tapping
S - slap
P - pop
< - fade in
^ - brush up
v - brush down





Comments


Popular Rob Scallon tabs & chords
Anchor Tabs
April Is The Cruelest Month Tabs
Disposable Tabs
Long Since Gone Tabs
Metal Mad Libs 2 Tabs
Musical Mad Libs 1 Tabs
Poetry Taken Literally Tabs
Ragtime Tabs
Rain Tabs
Run On Sentences Tabs


Song lyrics



↑ Back to top | Tablatures and chords are parodies/interpretations of the original songs. You may use it for private study, scholarship, research or language learning purposes only
© 2014 AZChords.com Contact us | Privacy policy | DMCA | Add/correct tabs | Request tabs | Top 50 tabs