» » »

Long Since Gone Tabs (ver.1)

Artists:  A B C D E F G H I J K L M N O P Q R S T U V W X Y Z # 

Long Since Gone Tabs (ver.1)

Rob Scallon
Rating:
5/5 (1 vote)

Hard to play? Try these video lessons and learn fast.
                
the beginning is really hard to tab out.
but the left hand is just holding a G chord
3
0
0
0
2
3
and the right hand picks harmonics on these frets in the first part of the tab


beginning
       TH   TH   TH   TH   TH   TH   TH    
       E    E    E    E    E    E    Q     
E||---------------------------<>15---------|
B||----------------------<>12-------<>12---|
G||-----------------<>12-------------------|
D||------------<>12------------------------|
A||-------<>14-----------------------------|
E||--<>15----------------------------------|


    TH   TH   TH   TH   TH        
    E    E    E    E    H         
---------------------------------|
--<>7----------------------------|
-------<>7-----------------------|
------------<>7------------------|
-----------------<>9-------------|
----------------------<>10-------|


part 2
"left hand switches from 
0
0
0         
2
3
3

over to

3
0
0
0
2
3

and the right hand does the taping"

   S S  S S  S S  S S  S S  S S  S S  S S  
------------------------------------------|
----------------------12-0-13-0-12-0------|
-----------------12-0----------------12-0-|
------------14-2--------------------------|
-------15-3-------------------------------|
--15-3------------------------------------|


   S S  S S  S S  S S  S S  S S  S S  S S  
------------------------------------------|
---------------------------13-0-12-0------|
----------------------12-0-----------12-0-|
------------14-2-12-2---------------------|
-------15-3-------------------------------|
--15-3------------------------------------|


   S S  S S  S S  S S  S S  S S  S S  S S  
---------------------------15-3-----------|
----------------------12-0------15-0------|
-----------------12-0----------------16-0-|
------------12-0--------------------------|
-------14-2-------------------------------|
--15-3------------------------------------|


   S S  S S  S S  S S  S S  S S  S S  S S  
---------------------------15-3-17-3-19-0-|
----------------------12-0----------------|
-----------------12-0---------------------|
------------12-0--------------------------|
-------14-2-------------------------------|
--15-3------------------------------------|


   S S  S S  S S  S S  S S  S S  S S  S S  
------------------------------------------|
----------------------12-0-13-0-12-0------|
-----------------12-0----------------12-0-|
------------14-2--------------------------|
-------15-3-------------------------------|
--15-3------------------------------------|


   S S  S S  S S  S S  S S  S S  S S  S S  
------------------------------------------|
---------------------------13-0-12-0------|
----------------------12-0-----------12-0-|
------------14-2-12-2---------------------|
-------15-3-------------------------------|
--15-3------------------------------------|


   S S  S S  S S  S S  S S  S S  S S  S S  
---------------------------15-3-----------|
----------------------12-0------15-0------|
-----------------12-0----------------16-0-|
------------12-0--------------------------|
-------14-2-------------------------------|
--15-3------------------------------------|


   S S  S S  S S  S S  S S  S S  S S  S S  
---------------------------15-3-17-3-19-3-|
----------------------12-0----------------|
-----------------12-0---------------------|
------------12-0--------------------------|
-------14-2-------------------------------|
--15-3------------------------------------|


   S S  S S  S S  S S  S S  S S  S S  S S  
--19-3-19-3-19-3-19-3-19-0-19-0-19-0-19-0-|
------------------------------------------|
------------------------------------------|
------------------------------------------|
------------------------------------------|
------------------------------------------|

part 3:

     S  S   S  S   S  S   S  S   S  S   S  S   S  S   S  S   
|---20--0--20--0--20--0--20--0--20--0--20--0--20--0--20--0--|
|---17-(0)-17-(0)-17-(0)-17-(0)-17-(0)-17-(0)-17-(0)-17-(0)-|
|*----------------------------------------------------------|
|*-------------------------------5--------------------------|
|------------------7----------------------------------------|
|----8------------------------------------------------------|


   S  S   S  S   S  S   S  S   S  S   S  S   S  S   S  S   
--19--0--19--0--19--0--19--0--19--0--19--0--19--0--19--0--|
--15-(0)-15-(0)-15-(0)-15-(0)-15-(0)-15-(0)-15-(0)-15-(0)-|
----------------------------------------------------------|
-------------------------------4--------------------------|
-----------------5----------------------------------------|
---7------------------------------------------------------|


   S  S   S  S   S  S   S  S   S  S   S  S   S  S   S  S   
--17--0--17--0--17--0--17--0--17--0--17--0--17--0--17--0--|
--13-(0)-13-(0)-13-(0)-13-(0)-13-(0)-13-(0)-13-(0)-13-(0)-|
----------------------------------------------------------|
-------------------------------2--------------------------|
-----------------3----------------------------------------|
---5------------------------------------------------------|


   S  S   S  S   S  S   S  S   S  S   S  S   S  S   S  S     
--15--0--15--0--15--0--15--0--15--0--15--0--15--0--15--0---||
--12-(0)-12-(0)-12-(0)-12-(0)-12-(0)-12-(0)-12-(0)-12-(0)--||
----------------------------------------------------------*||
----------------------------------------------------------*||
---2-------------------------------------------------------||
---3-------------------------------------------------------||

ending:


   Q     Q     H                                                      
--14----14----15--------|----|----|----|----|----|----|----|----|----|
--10----10----12--------|----|----|----|----|----|----|----|----|----|
---4--------------------|----|----|----|----|----|----|----|----|----|
---------4--------------|----|----|----|----|----|----|----|----|----|
---------------2--------|----|----|----|----|----|----|----|----|----|
---------------3--------|----|----|----|----|----|----|----|----|----|







Duration Legend
---------------
W - whole
H - half
Q - quarter
E - 8th
S - 16th
T - 32nd
X - 64th
. - note dotted
|-n-|  - n-tuplets


Tablature Legend
----------------
L - tied note
x - dead note
g - grace note
(n) - ghost note
> - accentuded note
NH - natural harmonic
AH - artificial harmonic
TH - tapped harmonic
SH - semi harmonic
PH - pitch harmonic
h - hammer on
p - pull off
b - bend
br - bendRelease
pb - preBend
pbr - preBendRelease
brb - bendReleaseBend
\n/ - tremolo bar dip
\n - tremolo bar dive
-/n - tremolo bar Release up
/n\ - tremolo bar inverted dip
/n - tremolo bar return
-\n - tremolo bar Release down
S - shift slide
s - legato slide
/ -  slide into from below or out of upwards
\ -  slide into from above or out of downwards
~ - vibrato
W - wide vibrato
tr - trill
TP - tremolo picking
T - tapping
S - slap
P - pop
< - fade in
^ - brush up
v - brush down
            
Hard to play? Try these video lessons and learn fast. | Correct




comments powered by Disqus
↑ Back to top | Tablatures and chords are parodies/interpretations of the original songs. You may use it for private study, scholarship, research or language learning purposes only