>
 >
Letters From Boston

Letters From Boston Guitar Tabs

Rob Scallon - Letters From Boston chords, tabs, tablatures, lyrics

Guitar lessons | Add/correct | Request | Top 50 tabs Artists:  A B C D E F G H I J K L M N O P Q R S T U V W X Y Z 0-9

Letters From Boston Guitar Tabs – Rob Scallon

CD, Sheet music, Poster

Do you like Letters From Boston? Share with your friends now
Tabs
Track 1 (Capo 5, refer to 5th fret as 0)
   
    Main Riff 1   
E||---------------------------------|---------------------------------|
B||--------1-0-------------0--------|--------1-0---3-0-------0--------|
G||------0-----0---------0----0-----|------0-----0---------0----0-----|
D||----2-----------0---0----------0-|----2---------------0----------0-|
A||--3-----------3---2----------2---|--3---------------2----------2---|
E||---------------------------------|---------------------------------|


    
--------------------------------|--------------------------------|----|
--------1--------------0--------|--------0--------------0--------|----|
------0----0---------0----0-----|------0----0---------0----0-----|----|
----2----------0---0----------0-|----0----------0---0----------0-|----|
--3----------3---2----------2---|--------------------------------|----|
--------------------------------|--2----------2---2----------2---|----|


 Verse 3x                             Verse Ending 1
|----------------------------------||--------------------------------|
|---------1--------------0---------||--------0--------------0--------|
|*------0----0---------0----0-----*||------0----0---------0----0-----|
|*----2----------0---0----------0-*||----0----------0---0----------0-|
|---3----------3---2----------2----||--------------------------------|
|----------------------------------||--2----------2---2----------2---|

  Verse Ending 2                       Chorus
--------------------------------|----|-------------------------------|
--------3--------------3--------|----|----1---1----1-1----0-0----0-0-|
------0----0---------0----0-----|----|--0-0-0-0-0--0-0-0--0-0----0-0-|
----4----------4---4----------4-|----|--2---2---2------0------0------|
--5----------5---5----------5---|----|--3---3---3------2------2------|
--------------------------------|----|------------------------3------|

 
------------------------------|------------------------------|
-----1-1----1-1----0-0----0-0-|-----1-1----1-1----0-0----0-0-|
--0--0-0-0--0-0-0--0-0----0-0-|--0--0-0-0--0-0-0--0-0----0-0-|
--2------2------0------0------|--2------2------0------0------|
--3------3------2------2------|--3------3------2------2------|
-----------------------3------|-----------------------3------|


                                     Main Riff 2
------------------------------|----|---------------------------------|
-----0-0----0-0----0-0----0-0-|----|--------1-0-------------0--------|
-----0-0----0-0----0-0----0-0-|----|------0-----0---------0----0-----|
--0------0------0------0------|----|----2-----------0---0----------0-|
--0------0------2------2------|----|--3-----------3---2----------2---|
--5------2------3------3------|----|---------------------------------|


    
---------------------------------|--------------------------------|
--------1-0---3-0-------0--------|--------1--------------1-3---3--|
------0-----0---------0----0-----|------0----0---------0----------|
----2---------------0----------0-|----2----------0---0-------0----|
--3---------------2----------2---|--3----------3---2--------------|
---------------------------------|--------------------------------|


                                       Bridge
--------------------------------|----|--------------------------------|
--------3--------------3--------|----|--------8--------------8--------|
------0----0---------0----0-----|----|------0----0---------0----0-----|
----4----------4---4----------4-|----|----0----------0---0----------0-|
--5----------5---5----------5---|----|--7----------7---7----------7---|
--------------------------------|----|--------------------------------|


   
--------------------------------|--------------------------------|
--------7--------------7--------|--------5--------------5--3-1-0-|
------0----0---------0----0-----|------0----0---------0----------|
----0----------0---0----------0-|----0----------0---0------------|
--5----------5---5----------5---|--3----------3---3--------------|
--------------------------------|--------------------------------|


    
--------------------------------||
--------3--------------3--------||
------0----0---------0----0-----||
----0----------0---0----------0-||
--2----------2---2----------2---||
--------------------------------||






Tablature Legend
----------------
L - tied note
x - dead note
g - grace note
(n) - ghost note
> - accentuded note
NH - natural harmonic
AH - artificial harmonic
TH - tapped harmonic
SH - semi harmonic
PH - pitch harmonic
h - hammer on
p - pull off
b - bend
br - bendRelease
pb - preBend
pbr - preBendRelease
brb - bendReleaseBend
\n/ - tremolo bar dip
\n - tremolo bar dive
-/n - tremolo bar Release up
/n\ - tremolo bar inverted dip
/n - tremolo bar return
-\n - tremolo bar Release down
S - shift slide
s - legato slide
/ -  slide into from below or out of upwards
\ -  slide into from above or out of downwards
~ - vibrato
W - wide vibrato
tr - trill
TP - tremolo picking
T - tapping
S - slap
P - pop
< - fade in
^ - brush up
v - brush down





Comments


Popular Rob Scallon tabs & chords
Le Gentil Bass Tabs
For That Second Tabs
Iilwy Intro Tabs
Long Since Gone Tabs
Run On Sentences Tabs
Theater Girl Tabs
This Week 2 Tabs
Time Spent Wondering Tabs
To Zanarkand Tabs
Trouz Tabs


Song lyrics



↑ Back to top | Tablatures and chords are parodies/interpretations of the original songs. You may use it for private study, scholarship, research or language learning purposes only
© 2014 AZChords.com Contact us | Privacy policy | DMCA | Add/correct tabs | Request tabs | Top 50 tabs