» » »

Rob Scallon, I Should Spend More Time With You Tabs (ver.1)

Artists:  A B C D E F G H I J K L M N O P Q R S T U V W X Y Z # 

I Should Spend More Time With You Tabs (ver.1)

Rob Scallon Tabs
 Rating:
4.4/5 (7 votes)
I Should Spend More Time With You lessons Tabs too difficult? Try these video lessons and learn fast
1
                              I Should Spend More Time With You 
                         Rob Scallon
                                               


Song Structure:

Main Riff x8
Chorus    x1
Main Riff x8
Chorus 2  x1
Lead      x1
Chorus 3  x1


                                                                  
Main Riff
    
E||--------------------------|--------------------------||
B||-----0-----0-----0-----0--|-----0-----0-----0-----0--||
G||-----0-----0-----0-----0--|-----0-----0-----0-----0--||
D||-----0-----0-----0-----0--|-----0-----0-----0-----0--||
A||--------2-----3-----2-----|--------2-----------------||
E||--3-----------------------|--3-----------2-----2-----||


Chorus 1
            
E||--------------------------|----------------------------||
B||-----0-----0-----0-----0--|------0-----0------0-----0--||
G||-----0-----0-----0-----0--|------0-----0------0-----0--||
D||-----0-----0-----0-----0--|------0-----0------0-----0--||
A||--------7-----------7-----|---------9------------9-----||
E||--8-----------8-----------|--10-----------10-----------||


Chorus 2

E||--------------------------|----------------------------|
B||-----0-----0-----0-----0--|------0-----0------0-----0--|
G||-----0-----0-----0-----0--|------0-----0------0-----0--|
D||-----0-----0-----0-----0--|------0-----0------0-----0--|
A||--------7-----------7-----|---------9------------9-----|
E||--8-----------8-----------|--10-----------10-----------|


|--------------------------|--------------------------||
|-----0-----0-----0-----0--|-----0-----0-----0-----0--||
|-----0-----0-----0-----0--|-----0-----0-----0-----0--||
|-----0-----0-----0-----0--|-----0-----0-----0-----0--||
|--------2-----3-----2-----|--------2-----------------||
|--3-----------------------|--3-----------2-----2-----||


Second Guitar Lead
               
E||-----------------------|------------------------|-------------------|
B||-----------------------|------------------------|-------------------|
G||------------7----5--4--|------------------------|-------------------|
D||---------9-------------|---------5--7--5--5--7--|--9----------------|
A||-----------------------|------------------------|-------------------|
E||-----------------------|------------------------|-------------------|
               

|-----------------------|------------------------|-------------------|
|-----------------------|------------------------|-------------------|
|------------7----5--4--|------------------------|-------------------|
|---------9-------------|---------5--7--5--5--7--|--5----------------|
|-----------------------|------------------------|-------------------|
|-----------------------|------------------------|-------------------|


|-----------------------|------------------------|-------------------|
|------------7----5-----|------------------------|-------------------|
|---------7--7----5--7--|---------4--5--4--4--5--|--7----------------|
|---------9----------9--|---------5--7--5--5--7--|--9----------------|
|-----------------------|------------------------|-------------------|
|-----------------------|------------------------|-------------------|


|-----------------------|------------------------|-------------------||
|---------7--7----5--7--|---------4--5--4--4--5--|--4----------------||
|---------9----------9--|---------5--7--5--5--7--|--5----------------||
|-----------------------|------------------------|-------------------||
|-----------------------|------------------------|-------------------||


Chorus 3
  
E||--------------------------|----------------------------|
B||-----0-----0-----0-----0--|------0-----0------0-----0--|
G||-----0-----0-----0-----0--|------0-----0------0-----0--|
D||-----0-----0-----0-----0--|------0-----0------0-----0--|
A||--------7-----------7-----|---------9------------9-----|
E||--8-----------8-----------|--10-----------10-----------|

  
--------------------------|--------------------------|
-----0-----0-----0-----0--|-----0-----0-----0-----0--|
-----0-----0-----0-----0--|-----0-----0-----0-----0--|
-----0-----0-----0-----0--|-----0-----0-----0-----0--|
--------2-----3-----2-----|--------2-----------------|
--3-----------------------|--3-----------2-----2-----|

  
--------------------------|----------------------------|
-----0-----0-----0-----0--|------0-----0------0-----0--|
-----0-----0-----0-----0--|------0-----0------0-----0--|
-----0-----0-----0-----0--|------0-----0------0-----0--|
--------7-----------7-----|---------9------------9-----|
--8-----------8-----------|--10-----------10-----------|

  
--------------------------|--------------------------|
-----0-----0-----0-----0--|-----0-----0-----0-----0--|
-----0-----0-----0-----0--|-----0-----0-----0-----0--|
-----0-----0-----0-----0--|-----0-----0-----0-----0--|
--------2-----3-----2-----|--------2-----------------|
--3-----------------------|--3-----------2-----2-----|

  
--------------------------|----------------------------|
-----0-----0-----0-----0--|------0-----0------0-----0--|
-----0-----0-----0-----0--|------0-----0------0-----0--|
-----0-----0-----0-----0--|------0-----0------0-----0--|
--------7-----------7-----|---------9------------9-----|
--8-----------8-----------|--10-----------10-----------|

  
------------------------------|----------------------------|
------0------0------0------0--|------0------0-----x-----x--|
------0------0------0------0--|------0------0-----x-----x--|
------0------0------0------0--|------0------0-----x-----x--|
--10-----10-----10-----10-----|--10-----10-----------------|
--12-----12-----12-----12-----|--12-----12-----2-----2-----|

  
--------------------------|--------------------------|
-----0-----0-----0-----0--|-----0-----0-----0-----0--|
-----0-----0-----0-----0--|-----0-----0-----0-----0--|
-----0-----0-----0-----0--|-----0-----0-----0-----0--|
--------2-----3-----2-----|--------2-----------------|
--3-----------------------|--3-----------2-----2-----|

 
--------------------------|--------------------------|
-----0-----0-----0-----0--|-----0-----0-----0-----0--|
-----0-----0-----0-----0--|-----0-----0-----0-----0--|
-----0-----0-----0-----0--|-----0-----0-----0-----0--|
--------2-----3-----2-----|--------2-----------------|
--3-----------------------|--3-----------2-----2-----|

             
--3------------------||
--0------------------||
--0------------------||
--0------------------||
--2------------------||
--3------------------||
            
Submit corrections

comments powered by Disqus
↑ Back to top | Rob Scallon Tabs for I Should Spend More Time With You. Lyrics for acoustic guitar and electric guitar. 1 Tablatures and chords are parodies/interpretations of the original songs. You may use it for private study, scholarship, research or language learning purposes only