» » »

Rob Scallon, Iilwy Tabs (ver.1)

Artists:  A B C D E F G H I J K L M N O P Q R S T U V W X Y Z # 

Iilwy Tabs (ver.1)

Rob Scallon Tabs
 Rating:
4/5 (4 votes)
Iilwy lessons Tabs too difficult? Try these video lessons and learn fast
                (Intro)
                                  Iilwy                                    
                              by Rob Scallon
 


E||---------------------|--0--------------------|-----------------------|
B||---------------1--3--|---------------3--1----|--0--------------1--3--|
G||---------------------|-----------------------|-----------------------|
D||---------------------|--------2--------------|--------2--------------|
A||---------------------|-----3-----------------|-----3-----------------|
E||---------------------|--3--------------------|--5--------------------|

    
--0--------------1----|--0--------------------|--0--------------------|
----------------------|-----------------1--3--|---------------3--1----|
----------------------|-----------------------|-----------------------|
--------2-------------|-----------------------|--------2--------------|
-----3----------------|-----0--3--------------|-----3-----------------|
--3-------------------|--1--------------------|--3--------------------|

   
----------------------|----------------------|-----------------------||
--0--------------0----|--1--------------3----|--1--------------------||
----------------------|----------------------|--------0--------------||
--------2-------------|-----0--3-------------|-----2-----------------||
-----3----------------|--2-------------------|--3--------------------||
--5-------------------|----------------------|-----------------------||
            
Submit corrections

comments powered by Disqus
↑ Back to top | Rob Scallon Tabs for Iilwy. Lyrics for acoustic guitar and electric guitar. Tablatures and chords are parodies/interpretations of the original songs. You may use it for private study, scholarship, research or language learning purposes only