» » »

Rob Scallon, Heart Beats Tabs (ver.1)

Artists:  A B C D E F G H I J K L M N O P Q R S T U V W X Y Z # 

Heart Beats Tabs (ver.1)

Rob Scallon Tabs
Rating:
0/5 (0 votes)
Heart Beats lessons Tabs too difficult? Try these video lessons and learn fast
                  Heart Beats  ft kartiv2  
song is all fingerpicked, use thumb to strum chords                              



                                      if I would tell you...
    E  E  E  E  E  E  E  E     E  E  E  E  E  E  E  E   9x
|---------------------------|---------------------------||
|---------0--------0--------|--------0--------0---------||
|*-----0--------0--------0--|-----0--------0--------0--*||
|*--0--------0--------0-----|--0--------0--------0-----*||
|---------------------------|---------------------------||
|---------------------------|---------------------------||




   E  E  E  E  E  E  E  E     E  E  E  E  E  E  E  E   
---------------------------|--------------------------|
---------0--------0--------|--------0--------0--------|
*-----0--------0--------0--|-----0--------0--------0--|
*--0--------0--------0-----|--0--------0--------0-----|
---------------------------|--------------------------|
---------------------------|--------------------------|

again and again...
  E  E  E  E  E  E  E  E     E  E  E  E  E  E  E  E   3x
--------------------------|---------------------------||
--------1--------1--------|--------1--------1---------||
-----0--------0--------0--|-----0--------0--------0--*||
--2--------2--------2-----|--2--------2--------2-----*||
--------------------------|---------------------------||
--------------------------|---------------------------||



will you laugh with me...
  E  E  E  E  E  E  E  E     E  E  E  E  E  E  E  E   
--------------------------|--------------------------|
--------3--------3--------|--------3--------3--------|
-----0--------0--------0--|-----0--------0--------0--|
--4--------4--------4-----|--4--------4--------4-----|
--------------------------|--------------------------|
--------------------------|--------------------------|


    E  E  E  E  E  E  E  E     E  E  E  E  E  E  E  E     
|---------------------------|---------------------------||
|---------0--------0--------|--------0--------0---------||
|*-----0--------0--------0--|-----0--------0--------0--*||
|*--0--------0--------0-----|--0--------0--------0-----*||
|---------------------------|---------------------------||
|---------------------------|---------------------------||



tell you that you are the one...
   E  E  E  E  E  E  E  E     E  E  E  E  E  E  E  E   
---------------------------|--------------------------|
---------0--------0--------|--------0--------0--------|
*-----0--------0--------0--|-----0--------0--------0--|
*--------------------------|--------------------------|
---2--------2--------2-----|--2--------2--------2-----|
---3--------3--------3-----|--3--------3--------3-----|


  E  E  E  E  E  E  E   E     E  E  E  E  E  E  E  E   4x
---------------------------|---------------------------||
--------0--------0---------|--------0--------0---------||
-----0--------0---------0--|-----0--------0--------0--*||
---------------------------|--------------------------*||
--3--------3--------3s--5--|--5--------5--------5------||
--5--------5--------5s--7--|--7--------7--------7------||




   E  E  E  E  E  E  E  E     E  E  E  E  E  E  E  E     
---------------------------|---------------------------||
---------0--------0--------|--------0--------0---------||
*-----0--------0--------0--|-----0--------0--------0--*||
*--0--------0--------0-----|--0--------0--------0-----*||
---------------------------|---------------------------||
---------------------------|---------------------------||



tell me, tell me you came...
   E  E  E  E  E  E  E  E     E  E  E  E  E  E  E  E   
---------------------------|--------------------------|
---------0--------0--------|--------0--------0--------|
*-----0--------0--------0--|-----0--------0--------0--|
*--------------------------|--------------------------|
---2--------2--------2-----|--2--------2--------2-----|
---3--------3--------3-----|--3--------3--------3-----|


   E  E  E   E  E  E   E  E     E  E  E  E  E  E   E   E   4x
-----------------------------|-----------------------------||
---------0---------0---------|--------0--------0-----------||
------0---------0---------0--|-----0--------0----------0--*||
-----------------------------|----------------------------*||
---9---------9---------9-----|--7--------7--------10\--L---||
--10--------10--------10-----|--8--------8--------12\--L---||



    I will follow you...
  E  E  E  E  E  E   E  E      E  E  E   E  E  E   E  E   
---------------------------|-----------------------------|
--------0--------0---------|---------0---------0---------|
-----0--------0---------0--|------0---------0---------0--|
---------------------------|-----------------------------|
--7--------7--------10-----|--10--------10--------10-----|
--8--------8--------12-----|--12--------12--------12-----|


  E  E  E  E  E  E  E  E      E  E  E   E  E  E   E  E   
--------------------------|-----------------------------|
--------0--------0--------|---------0---------0---------|
-----0--------0--------0--|------0---------0---------0--|
--------------------------|-----------------------------|
--5--------5--------5-----|---9---------9---------9-----|
--7--------7--------7-----|--10--------10--------10-----|



           I would tell you that you are the on...
   Q     H         Q          E  E  E  E  E  E  E  E   
-------------------------||---------------------------|
-------------------------||---------0--------0--------|
-------------------------||*-----0--------0--------0--|
-------------------------||*--------------------------|
---9\-------------10\----||---2--------2--------2-----|
--10\-------------12\----||---3--------3--------3-----|


  E  E  E  E  E  E  E  E     E  E  E  E  E  E  E   E   
--------------------------|---------------------------|
--------0--------0--------|--------0--------0---------|
-----0--------0--------0--|-----0--------0---------0--|
--------------------------|---------------------------|
--2--------2--------2-----|--3--------3--------3s--5--|
--3--------3--------3-----|--5--------5--------5s--7--|

                         when I hold you tight...

  E  E  E  E  E  E  E  E   4x   E  E  E  E  E  E  E  E   
---------------------------||---------------------------|
--------0--------0---------||---------1--------1--------|
-----0--------0--------0--*||*-----0--------0--------0--|
--------------------------*||*--2--------2--------2-----|
--5--------5--------5------||---3--------3--------3-----|
--7--------7--------7------||---3--------3--------3-----|


  E  E  E  E  E  E  E  E     E  E  E  E  E  E  E  E   
--------------------------|--------------------------|
--------1--------1--------|--------0--------0--------|
-----0--------0--------0--|-----0--------0--------0--|
--2--------2--------2-----|--0--------0--------0-----|
--3--------3--------3-----|--2--------2--------2-----|
--3--------3--------3-----|--3--------3--------3-----|


  E  E  E  E  E  E  E  E   x3  E  E  E  E  E  E  E  E   
---------------------------||--------------------------|
--------0--------0---------||--------1--------1--------|
-----0--------0--------0--*||-----0--------0--------0--|
--0--------0--------0-----*||--2--------2--------2-----|
--2--------2--------2------||--3--------3--------3-----|
--3--------3--------3------||--3--------3--------3-----|


                             ^                   v                  
  E  E  E  E  E  E  E  E     W                   W                  
--------------------------|-------------------|-------------------||
--------1--------1--------|--0----------------|--0----------------||
-----0--------0--------0--|--0----------------|--0----------------||
--2--------2--------2-----|--4----------------|--4----------------||
--3--------3--------3-----|--2----------------|--5----------------||
--3--------3--------3-----|--3----------------|--3----------------||




Duration Legend
---------------
W - whole
H - half
Q - quarter
E - 8th
S - 16th
T - 32nd
X - 64th
. - note dotted
|-n-|  - n-tuplets


Tablature Legend
----------------
L - tied note
x - dead note
g - grace note
(n) - ghost note
> - accentuded note
NH - natural harmonic
AH - artificial harmonic
TH - tapped harmonic
SH - semi harmonic
PH - pitch harmonic
h - hammer on
p - pull off
b - bend
br - bendRelease
pb - preBend
pbr - preBendRelease
brb - bendReleaseBend
\n/ - tremolo bar dip
\n - tremolo bar dive
-/n - tremolo bar Release up
/n\ - tremolo bar inverted dip
/n - tremolo bar return
-\n - tremolo bar Release down
S - shift slide
s - legato slide
/ -  slide into from below or out of upwards
\ -  slide into from above or out of downwards
~ - vibrato
W - wide vibrato
tr - trill
TP - tremolo picking
T - tapping
S - slap
P - pop
< - fade in
^ - brush up
v - brush down
            
Submit corrections

comments powered by Disqus
↑ Back to top | Rob Scallon Tabs for Heart Beats. Lyrics for acoustic guitar and electric guitar. Tablatures and chords are parodies/interpretations of the original songs. You may use it for private study, scholarship, research or language learning purposes only