>
 >
Heard Again

Heard Again Guitar Tabs

Rob Scallon - Heard Again chords, tabs, tablatures, lyrics

Guitar lessons | Add/correct | Request | Top 50 tabs Artists:  A B C D E F G H I J K L M N O P Q R S T U V W X Y Z 0-9

Heard Again Guitar Tabs – Rob Scallon

CD, Sheet music, Poster

Do you like Heard Again? Share with your friends now
Tabs
 Heard Again                                 
    by Rob Scallon




Tuning from low to high is FACGCE, notes with a <> before them are harmonics


                                NH    NH    NH   NH     NH    
      E  E  E  E  H             E.    E.    E    Q      Q     
E||------------0--L--------|---------------------------------|
C||---0--------------------|---------------------------------|
G||*-----0-----------------|-------------------<>5-----------|
C||*--------0--------------|--------------<>7---------<>5----|
A||------------0--L--------|--------<>5----------------------|
F||---0--------------------|--<>5----------------------------|


                            NH    NH    NH   NH           
  E  E  E  E  H             E.    E.    E    Q    Q       
-----------------------|--------------------------------||
--0--------0--L--------|--------------------------------||
-----0-----------------|-------------------------------*||
--------0--------------|-------------------------------*||
-----------0-----------|--------<>7--------<>7----L-----||
--0-----------L--------|--<>5---------<>5---------L-----||


    NH    NH    NH   NH      NH        NH   NH   NH   NH           
    E.    E.    E    Q       Q         E    E    E    E  H         
--------------------------<>12----|-------------------------------|
--------------------------<>12----|-------------------------------|
--------------------------<>12----|-------------------------------|
----------------------------------|------------<>5----------------|
--------<>7--------<>7------------|-------<>5-------<>7--L--------|
--<>5---------<>5-----------------|--<>5--------------------------|


     NH    NH    NH   NH               NH   NH   NH   NH           
     E     E     E    E  H             E    E    E    E  H         
----------------------------------|-------------------------------|
----------------------------------|-------------------------------|
----------------------------------|-------------------------------|
--------------<>12----------------|------------<>5----------------|
--------<>12--------<>7--L--------|-------<>5-------<>7--L--------|
--<>12----------------------------|--<>5--------------------------|


     NH    NH    NH   NH     NH          NH   NH   NH   NH           
     E     E     E    Q      Q.          E    E    E    E  H         
---------------------------<>5------|-------------------------------|
---------------------------<>5------|-------------------------------|
---------------------------<>5------|-------------------------------|
--------------<>12------------------|------------<>5----------------|
--------<>12--------<>7-------------|-------<>5-------<>7--L--------|
--<>12------------------------------|--<>5--------------------------|


     NH    NH    NH   NH     NH    NH       NH   NH   NH   NH           
     E     E     E    Q      E.    E.       E    E    E    E  H         
---------------------------<>5---------|-------------------------------|
---------------------------------<>5---|-------------------------------|
---------------------------------------|-------------------------------|
--------------<>12---------------------|------------<>5----------------|
--------<>12--------<>7----------------|-------<>5-------<>7--L--------|
--<>12---------------------------------|--<>5--------------------------|


     NH    NH    NH                 
     E     E     E  E  E  E  E  E   
--------------------0-----------8--|
-----------------------0-----------|
--------------------------0--------|
--------------<>12-----------0-----|
--------<>12-----------------------|
--<>12-----------------------------|


     NH    NH    NH   NH                   
     E     E     E    E  E  E   S   S  E   
-----8---------------10--------10s-12p-8--|
-------------------------0----------------|
----------------------------0-------------|
--------------<>12------------------------|
--------<>12--------<>7-------------------|
--<>12------------------------------------|


     NH    NH    NH                   
     E     E     E  E  E  E  S  S E   
-----8--------------3--------1p-0----|
-----------------------0----------0--|
--------------------------0----------|
--------------<>12-------------------|
--------<>12-------------------------|
--<>12-------------------------------|


     NH    NH    NH   NH                                                  
     E     E     E    E  E  E  S   S E     E   E  E   E  E   E   E  S  S  
-----8---------------10--------8s-12----|------------12---------12-------|
-------------------------0-----------0--|---------0------0---------------|
----------------------------0-----------|-----12------------10------9p-0-|
--------------<>12----------------------|--------------------------------|
--------<>12--------<>7-----------------|--0-----------------------------|
--<>12----------------------------------|--------------------------------|


     NH    NH    NH   NH                   
     E     E     E    E  E  E   S   S  E   
-----8---------------10--------10s-12p-8--|
-------------------------0----------------|
----------------------------0-------------|
--------------<>12------------------------|
--------<>12--------<>7-------------------|
--<>12------------------------------------|


     NH    NH    NH                   
     E     E     E  E  E  E  S  S E   
-----8--------------3--------1p-0----|
-----------------------0----------0--|
--------------------------0----------|
--------------<>12-------------------|
--------<>12-------------------------|
--<>12-------------------------------|


     NH    NH    NH   NH               
     E     E     E    E  E  E  E   E   
-----8---------------10--------7h--8--|
-------------------------0------------|
----------------------------0---------|
--------------<>12--------------------|
--------<>12--------<>7--------5s--7--|
--<>12--------------------------------|


    NH   NH   NH   NH   NH   NH   NH   NH  
    E    E    E    E    E    E    E    E   
----8--------------5--------------3-------|
------------------------------------------|
------------------------------------------|
------------<>7------------<>7------------|
-------<>7------------<>7------------<>5--|
--<>7------------<>7------------<>5-------|


    NH   NH   NH    NH    NH         
    E    E    E     E     E  Q.      
-----------------<>12---------------|
-------<>7-------------<>12---------|
------------<>7--------------L------|
--<>5------------<>12---------------|
-------<>7-------------<>12--L------|
------------<>7---------------------|


    NH   NH   NH   NH   NH   NH   NH   NH  
    E    E    E    E    E    E    E    E   
----5--------------3--------------0-------|
------------------------------------------|
------------------------------------------|
------------<>7------------<>5------------|
-------<>7------------<>5------------<>5--|
--<>7------------<>5------------<>5-------|


    NH   NH   NH    NH    NH     NH        NH   NH   NH   NH      NH       
    E    E    E     E     Q      Q         E    E    E    Q       Q.       
-----------------<>12----------<>7----|------------------------<>12\------|
-------<>7-------------<>12-----------|-----------------------------------|
------------<>7-----------------------|-----------------------------------|
--<>5------------<>12----------<>7----|------------<>5--------------------|
-------<>7-------------<>12-----------|-------<>5-------<>7-------L-------|
------------<>7-----------------------|--<>5------------------------------|


     NH    NH    NH   NH     NH           NH   NH   NH   NH   ^       
     E     E     E    Q      Q.           E    E    E    Q    Q.      
---------------------------<>5/------|------------------------0------|
-------------------------------------|------------------------0------|
-------------------------------------|------------------------0------|
--------------<>12-------------------|------------<>5---------0------|
--------<>12--------<>7------L-------|-------<>5-------<>7-----------|
--<>12-------------------------------|--<>5--------------------------|


     NH    NH    NH   NH                  NH   NH   NH   NH      NH       
     E     E     E    E  E  E  E  E       E    E    E    Q       Q.       
-------------------------0-----------|------------------------<>12\------|
----------------------------0--------|-----------------------------------|
-------------------------------0-----|-----------------------------------|
--------------<>12----------------0--|------------<>5--------------------|
--------<>12--------<>7--------------|-------<>5-------<>7-------L-------|
--<>12-------------------------------|--<>5------------------------------|


     NH    NH    NH   NH     NH           NH   NH   NH   NH   ^       
     E     E     E    Q      Q.           E    E    E    Q    Q.      
---------------------------<>5/------|------------------------0------|
-------------------------------------|------------------------0------|
-------------------------------------|------------------------0------|
--------------<>12-------------------|------------<>5---------0------|
--------<>12--------<>7------L-------|-------<>5-------<>7-----------|
--<>12-------------------------------|--<>5--------------------------|


     NH    NH    NH   NH              
     E     E     E    E  E  E  E  E   
-------------------------0--------8--|
----------------------------0--------|
-------------------------------0-----|
--------------<>12-------------------|
--------<>12--------<>7--------------|
--<>12-------------------------------|


     NH    NH    NH   NH                   
     E     E     E    E  E  E   S   S  E   
-----8---------------10--------10s-12p-8--|
-------------------------0----------------|
----------------------------0-------------|
--------------<>12------------------------|
--------<>12--------<>7-------------------|
--<>12------------------------------------|


     NH    NH    NH                   
     E     E     E  E  E  E  S  S E   
-----8--------------3--------1p-0----|
-----------------------0----------0--|
--------------------------0----------|
--------------<>12-------------------|
--------<>12-------------------------|
--<>12-------------------------------|


     NH    NH    NH   NH                                             
     E     E     E    E  E  E  E   E     S S S S S S Q     Q     E   
-----8---------------10--------8S--0--|--------0-----0-----0--------|
-------------------------0------------|------4---4---4-----x--------|
----------------------------0---------|----7-------7-5~----4b----0--|
--------------<>12--------------------|--------------0-----0--------|
--------<>12--------<>7---------------|--0--------------------------|
--<>12--------------------------------|-----------------------------|


     NH    NH    NH   NH                   
     E     E     E    E  E  E   S   S  E   
-----8---------------10--------10s-12p-8--|
-------------------------0----------------|
----------------------------0-------------|
--------------<>12------------------------|
--------<>12--------<>7-------------------|
--<>12------------------------------------|


     NH    NH    NH                   
     E     E     E  E  E  E  S  S E   
-----8--------------3--------1p-0----|
-----------------------0----------0--|
--------------------------0----------|
--------------<>12-------------------|
--------<>12-------------------------|
--<>12-------------------------------|


     NH    NH    NH                                               
     E     E     E   E  E  E  E   E     E  E  E  E  E  E  E   E   
-----8--------------10--------8S-----|--7-----------------7S-----|
------------------------0---------0--|-----0-----------0------0--|
---------------------------0---------|--------0-----0------------|
--------------<>12-------------------|--0--------0---------------|
--------<>12---------7--------5S-----|--3--------3--------LS-----|
--<>12-------------------------------|--0--------0---------------|


  E  E   E   E  E  E   E   E     E  E  E  E  E  E  E   E   
--8--LS-----10--------10S-----|--7-----------------7S-----|
-----0----------0----------0--|-----0-----------0------0--|
---------0---------0----------|--------0-----0------------|
--0--------------------0------|--0--------0---------------|
--5--LS------7---------7S-----|--3--------3--------LS-----|
--0--------------------0------|--0--------0---------------|


  S  S E  E   E  E   E   E   E     E  E  E  E  E  E  E   E   
--8----------10--LS-----12S-----|--7-----------------7S-----|
-------0---------0-----------0--|-----0-----------0------0--|
----------0----------0----------|--------0-----0------------|
--0----------------------0------|--0--------0---------------|
--5s-7--------8--LS-----10S-----|--3--------3--------LS-----|
--0----------------------0------|--0--------0---------------|


  E  E   E   E  E  E   E   E     E  E  E  E  E  E  E   E   
--8--LS-----10--------10S-----|--7-----------------5S-----|
-----0----------0----------0--|-----0-----------0------0--|
---------0---------0----------|--------0-----0------------|
--0--------------------0------|--0--------0---------------|
--5--LS------7---------7S-----|--3--------3--------LS-----|
--0--------------------0------|--0--------0---------------|


  E  E  E  E  E  E  S  S E   
--3-----------------3p-0----|
-----0-----------0-------0--|
--------0-----0-------------|
--0--------0----------------|
--2--------2--------L-------|
--0--------0----------------|


      NH   NH   NH   NH   NH   NH   NH   NH   NH   NH   NH   NH  
      E    E    E    E    E    E    E    E    E    E    E    E   
|---------------0--------------0--------------0--------------0--|
|----------4--------------4--------------4--------------4-------|
|*----7--------------7--------------7--------------7------------|
|*------------<>5------------<>5------------<>5------------<>5--|
|--------<>5------------<>5------------<>5------------<>5-------|
|---<>5------------<>5------------<>5------------<>5------------|


    NH   NH   NH   NH   NH   NH   NH   NH   NH   NH   NH   NH  
    E    E    E    E    E    E    E    E    E    E    E    E   
--------------0--------------0--------------0--------------0--|
---------4--------------4--------------4--------------4-------|
----5--------------5--------------5--------------5------------|
------------<>7------------<>7------------<>7------------<>7--|
-------<>7------------<>7------------<>7------------<>7-------|
--<>7------------<>7------------<>7------------<>7------------|


    NH   NH   NH   NH   NH   NH   NH   NH   NH   NH   NH   NH  
    E    E    E    E    E    E    E    E    E    E    E    E   
--------------0--------------0--------------0--------------0--|
---------4--------------4--------------4--------------4-------|
----7--------------7--------------7--------------7------------|
------------<>5------------<>5------------<>5------------<>5--|
-------<>5------------<>5------------<>5------------<>5-------|
--<>5------------<>5------------<>5------------<>5------------|


    NH   NH   NH   NH   NH   NH   NH   NH   NH   NH   NH   NH    
    E    E    E    E    E    E    E    E    E    E    E    E     
--------------0--------------0--------------0--------------0---||
---------0--------------0--------------0--------------0--------||
----2--------------2--------------4--------------4------------*||
------------<>5------------<>5------------<>7------------<>7--*||
-------<>5------------<>5------------<>7------------<>7--------||
--<>5------------<>5------------<>7------------<>7-------------||


  E  E  E  E  E  E  E  E  E  E  E  E   
--------0--------0--------0--------0--|
-----0--------0--------0--------0-----|
--2--------2--------2--------2--------|
--------0--------0--------0--------0--|
-----0--------0--------0--------0-----|
--0--------0--------0--------0--------|


  E  E  E  E  E  E  E  E  E  E  E  E   
--------0--------0--------0--------0--|
-----0--------0--------0--------0-----|
--0--------0--------0--------0--------|
--------0--------0--------0--------0--|
-----0--------0--------0--------0-----|
--2--------2--------2--------2--------|


  E  E  E  E  E  E  E  E  E  S  S E  E   
--------0--------0--------0----------0--|
-----0--------0--------0----------0-----|
--2--------2--------2--------2s-4-------|
--------0--------0--------0----------0--|
-----0--------0--------0----------0-----|
--0--------0--------0--------0----------|


  E  E  E  E  E  E  E  E  E  E  E  E   
--------0--------0--------0--------0--|
-----0--------0--------0--------0-----|
--0--------0--------0--------0--------|
--------0--------0--------0--------0--|
-----0--------0--------2--------2-----|
--2--------2--------2--------2--------|


                NH   NH               NH   NH  
  E  E  E  E    E    E  E  E  E  E    E    E   
--------0----------<>5--------0----------<>5--|
-----0--------<>5----------0--------<>5-------|
--2--------2------------2--------2------------|
--------0------------0--------0------------0--|
-----0----------0----------0----------0-------|
--0--------0------------0--------0------------|


                      NH                 
  E  E  E  E  E  E    E  E  E  E  E  E   
--------0--------0----------0--------0--|
-----0--------0----------0--------0-----|
--0--------0--------<>5--------0--------|
--------0--------0----------0--------0--|
-----0--------0----------0--------0-----|
--2--------2----------2--------2--------|


                NH   NH               NH   NH  
  E  E  E  E    E    E  E  E  E  E    E    E   
--------0----------<>5--------0----------<>5--|
-----0--------<>5----------0--------<>5-------|
--2--------2------------2--------2------------|
--------0------------0--------0------------0--|
-----0----------0----------0----------0-------|
--0--------0------------0--------0------------|


                      NH                 
  E  E  E  E  E  E    E  E  E  E  E  E   
--------0--------0----------0--------0--|
-----0--------0----------0--------0-----|
--0--------0--------<>5--------0--------|
--------0--------0----------0--------0--|
-----0--------0----------2--------2-----|
--2--------2----------2--------2--------|


                      NH                 
  E  E  E  E  E  E    E  E  E  E  E  E   
--------0--------0----------0--------0--|
-----0--------0----------0--------0-----|
--0--------0--------<>5--------0--------|
--------0--------0----------0--------0--|
-----0--------0----------2--------2-----|
--2--------2----------2--------2--------|


  ^          NH  NH  NH  NH  NH  NH  NH  NH  NH  NH  NH   NH    
  H          S   S   S   S   S   S   S   S   S   S   E    Q     
--0--------<>5-<>7---------------------------------------------|
--0----------------<>5-<>7-------------------------------------|
--0------------------------<>5-<>7-----------------------------|
--0--------------------------------<>5-<>7---------------------|
--0----------------------------------------<>5-<>7-------------|
--0------------------------------------------------<>5--<>7----|


     ^                                      
     W.                                     
--<>12----------------|-------------------||
--<>12----------------|-------------------||
--<>12----------------|-------------------||
--<>12----------------|-------------------||
--<>12----------------|-------------------||
--<>12----------------|-------------------||




Duration Legend
---------------
W - whole
H - half
Q - quarter
E - 8th
S - 16th
T - 32nd
X - 64th
. - note dotted
|-n-|  - n-tuplets


Tablature Legend
----------------
L - tied note
x - dead note
g - grace note
(n) - ghost note
> - accentuded note
NH - natural harmonic
AH - artificial harmonic
TH - tapped harmonic
SH - semi harmonic
PH - pitch harmonic
h - hammer on
p - pull off
b - bend
br - bendRelease
pb - preBend
pbr - preBendRelease
brb - bendReleaseBend
\n/ - tremolo bar dip
\n - tremolo bar dive
-/n - tremolo bar Release up
/n\ - tremolo bar inverted dip
/n - tremolo bar return
-\n - tremolo bar Release down
S - shift slide
s - legato slide
/ -  slide into from below or out of upwards
\ -  slide into from above or out of downwards
~ - vibrato
W - wide vibrato
tr - trill
TP - tremolo picking
T - tapping
S - slap
P - pop
< - fade in
^ - brush up
v - brush down





Comments


Popular Rob Scallon tabs & chords
Le Gentil Bass Tabs
Algonquin Rd Tabs
Disposable Tabs
Metal Mad Libs Tabs
Metal Mad Libs 3 Tabs
Metal Warm Up Riff Tabs
Ragtime Tabs
Short Song Tabs
Skipping Stones Tabs
Trouz Tabs


Song lyrics



↑ Back to top | Tablatures and chords are parodies/interpretations of the original songs. You may use it for private study, scholarship, research or language learning purposes only
© 2014 AZChords.com Contact us | Privacy policy | DMCA | Add/correct tabs | Request tabs | Top 50 tabs