>
 >
Faithful

Faithful Guitar Tabs

Rob Scallon - Faithful chords, tabs, tablatures, lyrics

Guitar lessons | Add/correct | Request | Top 50 tabs Artists:  A B C D E F G H I J K L M N O P Q R S T U V W X Y Z 0-9

Faithful Guitar Tabs – Rob Scallon

CD, Sheet music, Poster

Do you like Faithful? Share with your friends now
Tabs
                                         Faithful                                     


Rob Scallon




      E   E   E   E  E   E   E   E     E   E   E   E   E   E  E   E   3x
E||---------------------------------|---------------------------------||
B||------12------12-----12------12--|-----12------12------12-----12---||
G||*---------11-------------11------|--------------------------------*||
D||*--0--------------0--------------|--0-----------------------------*||
A||---------------------------------|---------10------10------9-------||
E||---------------------------------|---------------------------------||


  E   E   E   E  E   E   E   E     E   E   E   E   E   E   Q      
--------------------------------|--------------------------------|
-----12------12-----12------12--|-----12------12------12---LS----|
---------11-------------11------|--------------------------------|
--0--------------0--------------|--0-----------------------------|
--------------------------------|---------10------10-------9S----|
--------------------------------|--------------------------------|


    E  E  E  E  E  E  E  E     E  E  E  E  E  E  E  E   3x
|---------------------------|---------------------------||
|------7-----7-----7-----7--|-----7-----7-----7-----7---||
|*--------6-----------6-----|--------------------------*||
|*--0-----------0-----------|--0-----------------------*||
|---------------------------|--------5-----5-----0------||
|---------------------------|---------------------------||


  E  E  E  E  E  E  E  E     E  E  E  E  E  E  Q      
--------------------------|--------------------------|
-----7-----7-----7-----7--|-----7-----7-----7--LS----|
--------6-----------6-----|--------------------------|
--0-----------0-----------|--0-----------------0-----|
--------------------------|--------5-----5-----LS----|
--------------------------|--------------------------|


    I've said to much again...                             
    E                           E   E   E  E   E   E   E   
|---------------------------------------------------------|
|------------------------------12------12-----12------12--|
|*---------------------------------11-------------11------|
|*--0--------------------------------------0--------------|
|---------------------------------------------------------|
|---------------------------------------------------------|


  E   E   E   E   E   E  E   E   3x  E   E   E   E  E   E   E   E   
---------------------------------||--------------------------------|
-----12------12------12-----12---||-----12------12-----12------12--|
--------------------------------*||---------11-------------11------|
--0-----------------------------*||--0--------------0--------------|
---------10------10------9-------||--------------------------------|
---------------------------------||--------------------------------|


                                    own thoughts...                       
  E   E   E   E   E   E  Q          E               E  E  E  E  E  E  E   
-------------------------------||----------------------------------------|
-----12------12------12--LS----||-------------------7-----7-----7-----7--|
-------------------------------||*---------------------6-----------6-----|
--0----------------------------||*--0------------------------0-----------|
---------10------10------9S----||----------------------------------------|
-------------------------------||----------------------------------------|


  E  E  E  E  E  E  E  E   3x  E  E  E  E  E  E  E  E   
---------------------------||--------------------------|
-----7-----7-----7-----7---||-----7-----7-----7-----7--|
--------------------------*||--------6-----------6-----|
--0-----------------------*||--0-----------0-----------|
--------5-----5-----0------||--------------------------|
---------------------------||--------------------------|


  E  E  E  E  E  E  Q      
--------------------------|
-----7-----7-----7--LS----|
--------------------------|
--0-----------------0-----|
--------5-----5-----------|
--------------------------|


    These winter's months have been...                       
    E                                  E  E  E  E  E  E  E   
|-----------------------------------------------------------|
|--------------------------------------3-----3-----3-----3--|
|*----------------------------------------------2-----------|
|*----------------------------------------0-----------0-----|
|---2-------------------------------------------------------|
|-----------------------------------------------------------|


  E  E  E  E  E  E  E  E     E  E  E  E  E  E  E  E   
--------------------------|--------------------------|
-----2-----2-----2-----2--|-----2-----2-----2-----2--|
--------------2-----------|--------------2-----------|
--------0-----------0-----|--------0-----------0-----|
--2-----------------------|--0-----------------------|
--------------------------|--------------------------|


  E  E  E  E  E  E  E  E   4x  E  E  E  E  E  E  E  E   
---------------------------||--------------------------|
-----2-----2-----2-----2---||-----2-----2-----2-----x--|
--------------2-----------*||--------------2-----------|
--------0-----------0-----*||--------0-----------0-----|
---------------------------||--------------------------|
--2------------------------||--2-----------------------|


    I've rambled on again...                             
    E                         E   E   E  E   E   E   E   
|-------------------------------------------------------|
|----------------------------12------12-----12------12--|
|*-------------------------------11-------------11------|
|*--0------------------------------------0--------------|
|-------------------------------------------------------|
|-------------------------------------------------------|


  E   E   E   E   E   E  E   E   3x  E   E   E   E  E   E   E   E   
---------------------------------||--------------------------------|
-----12------12------12-----12---||-----12------12-----12------12--|
--------------------------------*||---------11-------------11------|
--0-----------------------------*||--0--------------0--------------|
---------10------10------9-------||--------------------------------|
---------------------------------||--------------------------------|


                                     misunderstood...                       
  E   E   E   E   E   E   Q          E                E  E  E  E  E  E  E   
--------------------------------||-----------------------------------------|
-----12------12------12---LS----||--------------------7-----7-----7-----7--|
--------------------------------||*----------------------6-----------6-----|
--0-----------------------------||*--0-------------------------0-----------|
---------10------10-------9-----||-----------------------------------------|
--------------------------------||-----------------------------------------|


  E  E  E  E  E  E  E  E   3x  E  E  E  E  E  E  E  E   
---------------------------||--------------------------|
-----7-----7-----7-----7---||-----7-----7-----7-----7--|
--------------------------*||--------6-----------6-----|
--0-----------------------*||--0-----------0-----------|
--------5-----5-----0------||--------------------------|
---------------------------||--------------------------|


  E  E  E  E  E  E  Q      
--------------------------|
-----7-----7-----7--LS----|
--------------------------|
--0-----------------0-----|
--------5-----5-----LS----|
--------------------------|


    These winter's months have been...                       
    E                                  E  E  E  E  E  E  E   
|-----------------------------------------------------------|
|--------------------------------------3-----3-----3-----3--|
|*----------------------------------------------2-----------|
|*----------------------------------------0-----------0-----|
|---2-------------------------------------------------------|
|-----------------------------------------------------------|


  E  E  E  E  E  E  E  E     E  E  E  E  E  E  E  E   
--------------------------|--------------------------|
-----2-----2-----2-----2--|-----2-----2-----2-----2--|
--------------2-----------|--------------2-----------|
--------0-----------0-----|--------0-----------0-----|
--2-----------------------|--0-----------------------|
--------------------------|--------------------------|


  E  E  E  E  E  E  E  E   4x  E  E  E  E  E  E  E  E   
---------------------------||--------------------------|
-----2-----2-----2-----2---||-----2-----2-----2-----2--|
--------------2-----------*||--------------2-----------|
--------0-----------0-----*||--------0-----------0-----|
---------------------------||--------------------------|
--2------------------------||--2-----------------------|


  and I'd find a way to tell you...                       
  E                                 E  E  E  E  E  E  E   
---------------------------------------------------------|
------------------------------------2-----2-----2-----2--|
---------------------------------------------2-----------|
---------------------------------------0-----------0-----|
---------------------------------------------------------|
--2------------------------------------------------------|


    E   E   E   E  E   E   E   E     E   E   E   E   E   E  E   E   3x
|---------------------------------|---------------------------------||
|------12------12-----12------12--|-----12------12------12-----12---||
|*---------11-------------11------|--------------------------------*||
|*--0--------------0--------------|--0-----------------------------*||
|---------------------------------|---------10------10------9-------||
|---------------------------------|---------------------------------||


  E   E   E   E  E   E   E   E     E   E   E   E   E   E   Q      
--------------------------------|--------------------------------|
-----12------12-----12------12--|-----12------12------12---LS----|
---------11-------------11------|--------------------------------|
--0--------------0--------------|--0-----------------------------|
--------------------------------|---------10------10-------9S----|
--------------------------------|--------------------------------|


  ^                  
  W                  
-------------------||
--7----------------||
--6----------------||
--0----------------||
--5----------------||
-------------------||




Duration Legend
---------------
W - whole
H - half
Q - quarter
E - 8th
S - 16th
T - 32nd
X - 64th
. - note dotted
|-n-|  - n-tuplets


Tablature Legend
----------------
L - tied note
x - dead note
g - grace note
(n) - ghost note
> - accentuded note
NH - natural harmonic
AH - artificial harmonic
TH - tapped harmonic
SH - semi harmonic
PH - pitch harmonic
h - hammer on
p - pull off
b - bend
br - bendRelease
pb - preBend
pbr - preBendRelease
brb - bendReleaseBend
\n/ - tremolo bar dip
\n - tremolo bar dive
-/n - tremolo bar Release up
/n\ - tremolo bar inverted dip
/n - tremolo bar return
-\n - tremolo bar Release down
S - shift slide
s - legato slide
/ -  slide into from below or out of upwards
\ -  slide into from above or out of downwards
~ - vibrato
W - wide vibrato
tr - trill
TP - tremolo picking
T - tapping
S - slap
P - pop
< - fade in
^ - brush up
v - brush down





Comments


Popular Rob Scallon tabs & chords
Algonquin Rd Tabs
Letters From Boston Tabs
Long Since Gone Tabs
Metal Mad Libs 3 Tabs
Metal Warm Up Riff Tabs
Poetry Taken Literally Tabs
Run On Sentences Tabs
Theater Girl Tabs
Union Il Tabs
Untitled Forever Tabs


Song lyrics



↑ Back to top | Tablatures and chords are parodies/interpretations of the original songs. You may use it for private study, scholarship, research or language learning purposes only
© 2014 AZChords.com Contact us | Privacy policy | DMCA | Add/correct tabs | Request tabs | Top 50 tabs