>
 >
Disposable

Disposable Guitar Tabs

Rob Scallon - Disposable chords, tabs, tablatures, lyrics

Guitar lessons | Add/correct | Request | Top 50 tabs Artists:  A B C D E F G H I J K L M N O P Q R S T U V W X Y Z 0-9

Disposable Guitar Tabs – Rob Scallon

CD, Sheet music, Poster

Do you like Disposable? Share with your friends now
Tabs
Disposable                                 
off of The Winter's Months




Capo on 5th fret

                                                 >       
     E  E  E  E  E  E  E  E     E  E  E  E  Q    E  E    
E||--------------------------|--------------------------|
B||--------------0-----------|--------------0-----------|
G||-----------0-----0--------|-----------0--------------|
D||--------0-----------0-----|--------2-----------------|
A||-----2-----------------2--|-----3-------------5--LS--|
E||--3-----------------------|--5----------------7--LS--|


                                                >       
   E   E  E  E  E  E  E  E     E  E  E  E  Q    E  E    
----------------------------|--------------------------|
----------------0-----------|--------------0-----------|
-------------0-----0--------|-----------0--------------|
----------0-----------0-----|--------2-----------------|
--(2)--2-----------------2--|-----3-------------5--LS--|
---3------------------------|--5----------------7--LS--|


                                                 >       
   E   E  E  E  E  E  E  S S    E  E  E  E  Q    E  E    
-----------------------------|--------------------------|
----------------0------------|--------------0-----------|
-------------0-----0---------|-----------0--------------|
----------0-----------0------|--------2-----------------|
--(2)--2-----------------2---|-----3-------------5--LS--|
---3-----------------------3-|--5----------------7--LS--|


   E   E  E  E  E  E  E  E     E  E  E   E    H          
----------------------------|---------------------------|
----------------0-----------|-----------(0)-------------|
-------------0-----0--------|----------------(0)--------|
----------0-----------0-----|--------2--(2)-------------|
--(2)--2-----------------2--|-----3----------(3)--------|
---3------------------------|--5------------------------|



    My heart's set on travelin out from the city...                       
    E  E  E  E  E  E  E  E   
|---------------------------|
|---------------0-----------|
|*-----------0-----0--------|
|*--------0-----------0-----|
|------2-----------------2--|
|---3-----------------------|


  E  E  E  E  E  E  E  E     E  E  E  E  E  E  E  E   
--------------------------|--------------------------|
--------------0-----------|--------------0-----------|
-----------0-----0--------|-----------0-----0--------|
--------2-----------2-----|--------0-----------0-----|
-----3-----------------3--|-----2-----------------2--|
--5-----------------------|--3-----------------------|


  E  E  E  E  E  E  E  E     E  E  E  E  E  E  E  E   
--------------------------|--------------------------|
--------------0-----------|--------------0-----------|
-----------0-----0--------|-----------0-----0--------|
--------2-----------2-----|--------0-----------0-----|
-----3-----------------3--|-----2-----------------2--|
--5-----------------------|--3-----------------------|


  E  E  E  E  E  E  E  E     E  E  E  E  E  E  E  E   
--------------------------|--------------------------|
--------------0-----------|--------------0-----------|
-----------0-----0--------|-----------0-----0--------|
--------4-----------4-----|--------0-----------0-----|
-----0-----------------0--|-----2-----------------2--|
--2-----------------------|--3-----------------------|


  E  E  E  E  E  E  E  E        E  E  E  E  E  E  E  E   
---------------------------||---------------3-----------|
--------------0------------||------------0-----0--------|
-----------0-----0--------*||*--------0-----------0-----|
--------0-----------0-----*||*-----2--------2-----------|
-----2-----------------2---||---0--------------------0--|
--3------------------------||---0--------------------0--|


  E  E  E  E  E  E  E  E     E  E  E  E  E  E  E  E   
--------------3-----------|--------------2-----------|
--------0--------0--------|-----------0-----0--------|
-----0-----0--------0-----|--------0-----------0-----|
--2-----------2--------0--|-----0--------0-----------|
--------------------------|--2--------------------2--|
--------------------------|--3--------------------3--|


  E  E  E  E  E  E  E  E     
--------------2------------||
--------0--------0---------||
-----0-----0--------0-----*||
--0-----------0--------0--*||
---------------------------||
---------------------------||


     I try and ignore her criticizing...                    
  E  E  E  E  E  E  E  E   
-------------------------|
-------------0-----------|
----------0-----0--------|
-------0-----------0-----|
-----2----------------2--|
--3----------------------|


  E  E  E  E  E  E  E  E     E  E  E  E  E  E  E  E   
--------------------------|--------------------------|
--------------0-----------|--------------0-----------|
-----------0-----0--------|-----------0-----0--------|
--------2-----------2-----|--------0-----------0-----|
-----3-----------------3--|-----2-----------------2--|
--5-----------------------|--3-----------------------|


  E  E  E  E  E  E  E  E     E  E  E  E  E  E  E  E   
--------------------------|--------------------------|
--------------0-----------|--------------0-----------|
-----------0-----0--------|-----------0-----0--------|
--------2-----------2-----|--------0-----------0-----|
-----3-----------------3--|-----2-----------------2--|
--5-----------------------|--3-----------------------|


  E  E  E  E  E  E  E  E     E  E  E  E  E  E  E  E   
--------------------------|--------------------------|
--------------0-----------|--------------0-----------|
-----------0-----0--------|-----------0-----0--------|
--------4-----------4-----|--------0-----------0-----|
-----0-----------------0--|-----2-----------------2--|
--2-----------------------|--3-----------------------|


  E  E  E  E  E  E  E  E   
--------------------------|
--------------0-----------|
-----------0-----0--------|
--------0-----------0-----|
-----2-----------------2--|
--3-----------------------|


    things change so quickly...                       
    E  E  E  E  E  E  E  E   
|---------------------------|
|---------------------------|
|*-----------0--0-----------|
|*--------4--------4--------|
|------5--------------5-----|
|---7-----------7--------7--|


  E  E  E  E  E  E  E  E     E  E  E  E  E  E  E  E   
--------------------------|--------------------------|
--------------------------|--------------------------|
-----------0--0-----------|-----------0--0-----------|
--------4--------4--------|--------2--------2--------|
-----5--------------5-----|-----3--------------3-----|
--7-----------7--------7--|--5-----------5--------5--|


  E  E  E  E  E  E  E  E       E  E  E  E  E  E  E  E   
---------------------------||--------------------------|
---------------------------||--------------0-----------|
-----------0--0-----------*||-----------0-----0--------|
--------2--------2--------*||--------0-----------0-----|
-----3--------------3------||-----2-----------------2--|
--5-----------5--------5---||--3-----------------------|


                   >                                    
  E  E  E  E  Q    E  E       E   E  E  E  E  E  E  E   
--------------------------|----------------------------|
--------------0-----------|----------------0-----------|
-----------0--------------|-------------0-----0--------|
--------2-----------------|----------0-----------0-----|
-----3-------------5--LS--|--(2)--2-----------------2--|
--5----------------7--LS--|---3------------------------|


                   >                                     
  E  E  E  E  Q    E  E       E   E  E  E  E  E  E  S S  
--------------------------|-----------------------------|
--------------0-----------|----------------0------------|
-----------0--------------|-------------0-----0---------|
--------2-----------------|----------0-----------0------|
-----3-------------5--LS--|--(2)--2-----------------2---|
--5----------------7--LS--|---3-----------------------3-|


                   >                                    
  E  E  E  E  Q    E  E       E   E  E  E  E  E  E  E   
--------------------------|----------------------------|
--------------0-----------|----------------0-----------|
-----------0--------------|-------------0-----0--------|
--------2-----------------|----------0-----------0-----|
-----3-------------5--LS--|--(2)--2-----------------2--|
--5----------------7--LS--|---3------------------------|


                              Put my maps away...                       
  E  E  E   E    H            E  E  E  E  E  E  E  E   
---------------------------|--------------------------|
-----------(0)-------------|--------------0-----------|
----------------(0)--------|-----------0-----0--------|
--------2--(2)-------------|--------0-----------0-----|
-----3----------(3)--------|-----2-----------------2--|
--5------------------------|--3-----------------------|


  E  E  E  E  E  E  E  E     E  E  E  E  E  E  E  E   
--------------------------|--------------------------|
--------------0-----------|--------------0-----------|
-----------0-----0--------|-----------0-----0--------|
--------2-----------2-----|--------0-----------0-----|
-----3-----------------3--|-----2-----------------2--|
--5-----------------------|--3-----------------------|


                             staying home...                       
  E  E  E  E  E  E  E  E     E  E  E  E  E  E  E  E   
--------------------------|-------------------------|
--------------0-----------|-------------0-----------|
-----------0-----0--------|----------0-----0--------|
--------2-----------2-----|-------0-----------0-----|
-----3-----------------3--|----2-----------------2--|
--5-----------------------|--3----------------------|


  E  E  E  E  E  E  E  E     E  E  E  E  E  E  E  E   
--------------------------|--------------------------|
--------------0-----------|--------------0-----------|
-----------0-----0--------|-----------0-----0--------|
--------4-----------4-----|--------0-----------0-----|
-----0-----------------0--|-----2-----------------2--|
--2-----------------------|--3-----------------------|


                             I feel so...                       
  E  E  E  E  E  E  E  E     E  E  E  E  E  E  E  E   
--------------------------|--------------------------|
--------------0-----------|--------------0-----------|
-----------0-----0--------|-----------0-----0--------|
--------0-----------0-----|--------0-----------0-----|
-----2-----------------2--|-----2-----------------2--|
--3-----------------------|--3-----------------------|


                    disposable                                  
  E  E  E  E  E  E  E  E       E  E  E  E  E  E  E  E   
--------------------------||---------------3-----------|
--------------0-----------||------------0-----0--------|
-----------0-----0--------||*--------0-----------0-----|
--------4-----------4-----||*-----2--------2-----------|
-----0-----------------0--||---0--------------------0--|
--2-----------------------||---0--------------------0--|


  E  E  E  E  E  E  E  E     E  E  E  E  E  E  E  E   
--------------3-----------|--------------2-----------|
--------0--------0--------|-----------0-----0--------|
-----0-----0--------0-----|--------0-----------0-----|
--2-----------2--------0--|-----0--------0-----------|
--------------------------|--2--------------------2--|
--------------------------|--3--------------------3--|


                                           ^                              
  E  E  E  E  E  E  E  E       E  E  E  E  H           W                  
--------------2------------||--------------2--------|--L----------------||
--------0--------0---------||--------0-----0--------|--L----------------||
-----0-----0--------0-----*||-----0-----0--0--------|--L----------------||
--0-----------0--------0--*||--0-----------0--------|--L----------------||
---------------------------||--------------2--------|--L----------------||
---------------------------||--------------3--------|--L----------------||




Duration Legend
---------------
W - whole
H - half
Q - quarter
E - 8th
S - 16th
T - 32nd
X - 64th
. - note dotted
|-n-|  - n-tuplets


Tablature Legend
----------------
L - tied note
x - dead note
g - grace note
(n) - ghost note
> - accentuded note
NH - natural harmonic
AH - artificial harmonic
TH - tapped harmonic
SH - semi harmonic
PH - pitch harmonic
h - hammer on
p - pull off
b - bend
br - bendRelease
pb - preBend
pbr - preBendRelease
brb - bendReleaseBend
\n/ - tremolo bar dip
\n - tremolo bar dive
-/n - tremolo bar Release up
/n\ - tremolo bar inverted dip
/n - tremolo bar return
-\n - tremolo bar Release down
S - shift slide
s - legato slide
/ -  slide into from below or out of upwards
\ -  slide into from above or out of downwards
~ - vibrato
W - wide vibrato
tr - trill
TP - tremolo picking
T - tapping
S - slap
P - pop
< - fade in
^ - brush up
v - brush down





Comments


Popular Rob Scallon tabs & chords
Procrastination Bassin Bass Tabs
Algonquin Rd Tabs
Metal Mad Libs 2 Tabs
Ragtime Tabs
Romanza In C Standard Tabs
Short Song Tabs
Summer Tabs
Teagen Tabs
This Week 2 Tabs
Union Il Tabs


Song lyrics



↑ Back to top | Tablatures and chords are parodies/interpretations of the original songs. You may use it for private study, scholarship, research or language learning purposes only
© 2014 AZChords.com Contact us | Privacy policy | DMCA | Add/correct tabs | Request tabs | Top 50 tabs