» » »

Rob Scallon, Amys Song Tabs (ver.1)

Artists:  A B C D E F G H I J K L M N O P Q R S T U V W X Y Z # 

Amys Song Tabs (ver.1)

Rob Scallon Tabs
Rating:
0/5 (0 votes)
Amys Song lessons Tabs too difficult? Try these video lessons and learn fast
                  Amy's Song                                
    by Rob Scallon


Song is fingerpicked and uses a lot of harmonics (the diamond notes).Here are the 
2 main guitar riffs that are the majority of the song.




Guitar 1 /intro

              NH         NH                  NH        NH         
      Q       Q    E     E  E   E     Q      Q    E    E  E   E   
E||--------------------------------|-----------------------------|
B||--------<>12-------<>12---------|-------<>5-------<>7---------|
G||--------<>12-------<>12---------|-------<>5-------<>7---------|
D||--------<>12-------<>12---------|-------<>5-------<>7---------|
A||--10------------9--------7s--5--|--7-----------5-------3s--2--|
E||--------------------------------|-----------------------------|


           NH         NH                  NH        NH               
   Q       Q    E     E  E   E     Q      Q    E    E   S  S   S  S  
--------------------------------|-----------------------------------|
--------<>12-------<>12---------|-------<>5-------<>7---------------|
--------<>12-------<>12---------|-------<>5-------<>7---------------|
--------<>12-------<>12---------|-------<>5-------<>7--10p-9h-10p-9-|
--10------------9--------7s--5--|--7-----------5--------------------|
--------------------------------|-----------------------------------|








Guitar 2

         NH    NH   NH   NH              
   E     E     S    S    E  E  E  E  E   
----------------------------------------|
------------<>12---------------------0--|
-----------------<>12-------------0-----|
------<>12------------<>12-----0--------|
--10------------------------9-----------|
----------------------------------------|


       NH   NH  NH  NH      NH   NH    
  E    E    S   S   E  E    E    Q     
--------------------------------------|
----------<>5------------------<>7----|
--------------<>5--------------<>7----|
-----<>5----------<>5-----<>7---------| 
--7--------------------5--------------|
--------------------------------------|




Duration Legend
---------------
W - whole
H - half
Q - quarter
E - 8th
S - 16th
T - 32nd
X - 64th
. - note dotted
|-n-|  - n-tuplets


Tablature Legend
----------------
L - tied note
x - dead note
g - grace note
(n) - ghost note
> - accentuded note
NH - natural harmonic
AH - artificial harmonic
TH - tapped harmonic
SH - semi harmonic
PH - pitch harmonic
h - hammer on
p - pull off
b - bend
br - bendRelease
pb - preBend
pbr - preBendRelease
brb - bendReleaseBend
\n/ - tremolo bar dip
\n - tremolo bar dive
-/n - tremolo bar Release up
/n\ - tremolo bar inverted dip
/n - tremolo bar return
-\n - tremolo bar Release down
S - shift slide
s - legato slide
/ -  slide into from below or out of upwards
\ -  slide into from above or out of downwards
~ - vibrato
W - wide vibrato
tr - trill
TP - tremolo picking
T - tapping
S - slap
P - pop
< - fade in
^ - brush up
v - brush down
            
Submit corrections

comments powered by Disqus
↑ Back to top | Rob Scallon Tabs for Amys Song. Lyrics for acoustic guitar and electric guitar. Tablatures and chords are parodies/interpretations of the original songs. You may use it for private study, scholarship, research or language learning purposes only